Song name
# A B C D E F G H I J K L M N O P Q R S T U V W X Y Z

Placebo - Special Needs Live tab

Placebo - Special Needs -live version(Cologne 2003)
tuning F#A#D#G#CC

By:IRIS666
Intro + Verses + Outro (listen to the song to get it right)
Main Riff (this is the way Brian plays it)
E---------------------------------------------------
B---------------------------------------------------
G---------------------------------------------------
D---------------------------------------------------
A-----7-x-7-x-7-x-7-7-7-7--7h8-8-8-8-8-8----3-3-3-3-
E-0-0----------------------------0-0-0-0----0-0-0-0-

Chorus
E---------------------------------------------------
B---------------------------------------------------
Ginstead-of-this-you-can-play 7-or-7----------------
D-----------------------------7----x----------------
A-5-5-5-5-5-5-5-5-5-5-5-------5----5--then-main-riff
E---------------------------------------------------


Interlude - Play Main Riff clean.(4x) 

Bass tuned to F plays something like this
G#--------------------------------------------------
D#--------------------------------------------------
A#--------------------------------------------------
F-----5/--13-13\------------------------------------


 Then play main riff distorted like this
E---------------------------------------------------
B---------------------------------------------------
G---------------------------------------------------
D---------------------------------------------------
A-----7-x-7777777--7h8-8-8-8-8-8----12-12-12--------
E-0-0--------------------0-0-0-0--------------------

E---------------------------------------------------
B---------------------------------------------------
G---------------------------------------------------
D---------------------------------------------------
A-----7-x-7777777--7h8-8-8-8-8-8----3-3-3-----------
E-0-0--------------------0-0-0-0----0-0-0-----------

And thats all.
Corrections etc. send to 36degrees@seznam.cz
Tap to rate this tab
 
# A B C D E F G H I J K L M N O P Q R S T U V W X Y Z