Song name
# A B C D E F G H I J K L M N O P Q R S T U V W X Y Z

Placebo - Protect Me From What I Want tab

Help us improve GuitareTab! Take a short survey!
After checking out many tabs on the internet i got annoyed
at the fact that none were correct and decided to tab it myself.
I learnt this by playing along with the cd so i'm pretty certain its
all correct. 

Please give me feedback and corrections 

Guitar One - Clean        EBGDAE
Guitar Two - Overdriven   EBGDAE
Guitar Three - Overdriven EBGDAE

Piano Intro/Verse for Guitar - Repeated throughout the song

e|------------------------------------------------------------------------|
b|------------------------------------------------------------------------|
g|-------4--------4--------4--------4--------4--------4--------4--------4-|
d|----5--------5--------5--------5--------5--------5--------5--------5----|
a|-------------------------------------3--------3--------3--------3-------|
E|-0--------0--------0--------0-------------------------------------------|

e|------------------------------------------------------------------------|
b|------------------------------------------------------------------------|
g|-------4--------4--------4--------4--------4--------4--------4--------4-|
d|----5--------5--------5--------5--------5--------5--------5--------5----|
a|-0--------0--------0--------0-------------------------------------------|
E|-------------------------------------3--------3--------2--------2-------|

I found that this way was easiest to play, but does sound quite bassy when
played with the CD. This is another way to play it which sounds more like
the piano you hear. Requires fast finger changes and one big stretch.

e|------------|      e|------------|      e|-------------|
b|------------|      b|------------|      b|-------------|
g|---------16-|      g|---------16-|      g|----------16-|
d|-----17-----| x 4  d|-----17-----| x 4  d|-----17------| x 4
a|-19---------|      a|-15---------|      a|-12----------|
E|------------|      E|------------|      E|-------------|

e|------------------------------------------------|
b|------------------------------------------------|
g|---------16----------16----------16----------16-|
d|-----17----------17----------17----------17-----|
a|------------------------------------------------|
E|-15----------15----------14----------14---------|

Chorus - Guitar One

e|--------------------------------------------------------------------|
b|--------------------------------------------------------------------|
g|----4-4-----4-4-----4-4-----4-4--------4--------4--------4--------4-|
d|----5-5-----5-5-----5-5-----5-5-----5--------5--------5--------5----|
a|---------------------------------3--------3--------3--------3-------|
E|-0-------0-------0-------0------------------------------------------|

e|--------------------------------------------------------------------|
b|--------------------------------------------------------------------|
g|----4-4-----4-4-----4-4-----4-4-----4-4-----4-4-----4-4------4-4----|
d|----5-5-----5-5-----5-5-----5-5-----5-5-----5-5-----5-5------5-5----|
a|-0-------0-------0-------0------------------------------------------|
E|---------------------------------3-------3-------2--------2---------|

Post Chorus - Guitar Two

e|----------------------------------------------------------------------|
b|----------------------------------------------------------------------|
g|----------------------------------------------------------------------|
d|-9-9-9-9-9-9-9-9--5-5-5-5-5-5-5-5--2-2-2-2-2-2-2-2-2------------------|
a|-7-7-7-7-7-7-7-7--3-3-3-3-3-3-3-3--0-0-0-0-0-0-0-0-0------------------|
E|------------------------------------------------------3-3-3-3-2-2-2-2-|

Post Chorus - Guitar Three

e|----------------|      e|-----------------|
b|----------------|      b|-----------------|
g|-19--16--14--16-|      g|-19-(x8)--17-(x8)|
d|----------------| x 3  d|-----------------|
a|----------------|      a|-----------------|
E|----------------|      E|-----------------|

Or alternately 

e|------------|      e|---------------------------------|
b|------------|      b|---------------------------------|
g|-9--4--2--4-|      g|-9-9-9-9-9-9-9-9-7-7-7-7-7-7-7-7-|
d|------------| x 3  d|---------------------------------|
a|------------|      a|---------------------------------|
E|------------|      E|---------------------------------|

Verse - Guitar One

e|------------------------------------------------------------------------|
b|------------------------------------------------------------------------|
g|-------4--------4--------4--------4--------4--------4--------4--------4-|
d|----5--------5--------5--------5--------5--------5--------5--------5----|
a|-------------------------------------3--------3--------3--------3-------|
E|-0--------0--------0--------0-------------------------------------------|

e|------------------------------------------------------------------------|
b|------------------------------------------------------------------------|
g|-------4--------4--------4--------4--------4--------4--------4--------4-|
d|----5--------5--------5--------5--------5--------5--------5--------5----|
a|-0--------0--------0--------0-------------------------------------------|
E|-------------------------------------3--------3--------2--------2-------|


Chorus - Guitar One

e|--------------------------------------------------------------------|
b|--------------------------------------------------------------------|
g|----4-4-----4-4-----4-4-----4-4--------4--------4--------4--------4-|
d|----5-5-----5-5-----5-5-----5-5-----5--------5--------5--------5----|
a|---------------------------------3--------3--------3--------3-------|
E|-0-------0-------0-------0------------------------------------------|

e|--------------------------------------------------------------------|
b|--------------------------------------------------------------------|
g|----4-4-----4-4-----4-4-----4-4-----4-4-----4-4-----4-4------4-4----|
d|----5-5-----5-5-----5-5-----5-5-----5-5-----5-5-----5-5------5-5----|
a|-0-------0-------0-------0------------------------------------------|
E|---------------------------------3-------3-------2--------2---------|

Chorus - Guitar Two 

e|-----------------------------------------------------|
b|-----------------------------------------------------|
g|-9-9-9-9-9-9-9-9--5-5-5-5-5-5-5-5--2-2-2-2-2-2-2-2-2-|
d|-----------------------------------------------------|
a|-7-7-7-7-7-7-7-7--3-3-3-3-3-3-3-3--0-0-0-0-0-0-0-0-0-|
E|-----------------------------------------------------|

e|--------------------------|
b|--------------------------|
g|-12-12-12-12--11-11-11-11-|
d|--------------------------|
a|-10-10-10-10--9--9--9--9--|
E|--------------------------|


I'm afraid i can't figure out the lead line going on in the second chorus.
Although, just doing bends on the 9th fret, G string does sound good if you
get it right. Just working with the E minor scale will work.

Bridge - Guitar Two (Play This Twice)

e|------------------------|      e|--------------------------------|
b|------------------------|      b|--------------------------------|
g|------12--7-------7--5--|      g|------7-------------------------|
d|-5h9---------5h9--------|x 3   d|-5h9-----9--7-7-7-7-7-7-7-7-5-5-|
a|------------------------|      a|--------------------------------|
E|------------------------|      E|--------------------------------|


Chorus - Guitar One

e|--------------------------------------------------------------------|
b|--------------------------------------------------------------------|
g|----4-4-----4-4-----4-4-----4-4--------4--------4--------4--------4-|
d|----5-5-----5-5-----5-5-----5-5-----5--------5--------5--------5----|
a|---------------------------------3--------3--------3--------3-------|
E|-0-------0-------0-------0------------------------------------------|

e|--------------------------------------------------------------------|
b|--------------------------------------------------------------------|
g|----4-4-----4-4-----4-4-----4-4-----4-4-----4-4-----4-4------4-4----|
d|----5-5-----5-5-----5-5-----5-5-----5-5-----5-5-----5-5------5-5----|
a|-0-------0-------0-------0------------------------------------------|
E|---------------------------------3-------3-------2--------2---------|

Chorus - Guitar Two 

e|-----------------------------------------------------|
b|-----------------------------------------------------|
g|-9-9-9-9-9-9-9-9--5-5-5-5-5-5-5-5--2-2-2-2-2-2-2-2-2-|
d|-----------------------------------------------------|
a|-7-7-7-7-7-7-7-7--3-3-3-3-3-3-3-3--0-0-0-0-0-0-0-0-0-|
E|-----------------------------------------------------|

e|--------------------------|
b|--------------------------|
g|-12-12-12-12--11-11-11-11-|
d|--------------------------|
a|-10-10-10-10--9--9--9--9--|
E|--------------------------|


And that's it. Hope it's all ok. Please rate and comment. Peace Out
Related for Protect Me From What I Want tab