Song name
# A B C D E F G H I J K L M N O P Q R S T U V W X Y Z

Placebo - Twenty Years tab

Standard Tuning
Cappo First Fret

Intro
e|----------------------------------------------------------|
B|------------0-------------0----------------------------0--|
G|--------0------------0------------0--------------0--------|
D|---10-----------10------------8--------8----8-------------|
A|-8----8---8---8----8---8---6----6---6-----6----6-----6----|
E|----------------------------------------------------------|

e|----------------------------------------------------------|
B|-------------------------0--------------------------------|
G|-------0------------0----------------0----0----0----0-----|
D|---6-------6-----6-------------5-------5----5----5----5---| x2
A|-4---4---4-----4---4---4-----3---3-3-----3----3----3----3-|
E|----------------------------------------------------------|

"There are twenty years to go..."
e|----------------------------------------------------------|
B|------------0-------------0----------------------------0--|
G|--------0------------0------------0--------------0--------|
D|---10-----------10------------8--------8----8-------------|
A|-8----8---8---8----8---8---6----6---6-----6----6-----6----|
E|----------------------------------------------------------|

e|----------------------------------------------------------|
B|-------------------------0--------------------------------|
G|-------0------------0----------------0----0----0----0-----|
D|---6-------6-----6-------------5-------5----5----5----5---| x2
A|-4---4---4-----4---4---4-----3---3-3-----3----3----3----3-|
E|----------------------------------------------------------|

"Thems the breaks, for we designer fakes..."
e|----------------------|
B|----------------------|
G|-0----0----0----0-----|
D|---5----5----5----5---| x3
A|-----3----3----3----3-|
E|----------------------|

"There are twenty years to go..."
e|----------------------------------------------------------|
B|------------0-------------0----------------------------0--|
G|--------0------------0------------0--------------0--------|
D|---10-----------10------------8--------8----8-------------|
A|-8----8---8---8----8---8---6----6---6-----6----6-----6----|
E|----------------------------------------------------------|

e|----------------------------------------------------------|
B|-------------------------0--------------------------------|
G|-------0------------0----------------0----0----0----0-----|
D|---6-------6-----6-------------5-------5----5----5----5---| x2
A|-4---4---4-----4---4---4-----3---3-3-----3----3----3----3-|
E|----------------------------------------------------------|


"Thems the breaks, for we designer fakes..."
e|----------------------|
B|----------------------|
G|-0----0----0----0-----|
D|---5----5----5----5---| x4
A|-----3----3----3----3-|
E|----------------------|


"There are twenty years to go..."
e|----------------------------------------------------------|
B|------------0-------------0----------------------------0--|
G|--------0------------0------------0--------------0--------|
D|---10-----------10------------8--------8----8-------------|
A|-8----8---8---8----8---8---6----6---6-----6----6-----6----|
E|----------------------------------------------------------|

e|----------------------------------------------------------|
B|-------------------------0--------------------------------|
G|-------0------------0----------------0----0----0----0-----|
D|---6-------6-----6-------------5-------5----5----5----5---| x2
A|-4---4---4-----4---4---4-----3---3-3-----3----3----3----3-|
E|----------------------------------------------------------|


"Thatīs the end and thatīs the start of it..."
e|----------------------|
B|----------------------|
G|-0----0----0----0-----|
D|---5----5----5----5---| x8
A|-----3----3----3----3-|
E|----------------------|

"Youīre the truth,not I..."
e|----------------------------------------------------------|
B|------------0-------------0----------------------------0--|
G|--------0------------0------------0--------------0--------|
D|---10-----------10------------8--------8----8-------------|
A|-8----8---8---8----8---8---6----6---6-----6----6-----6----|
E|----------------------------------------------------------|

e|----------------------------------------------------------|
B|-------------------------0--------------------------------|
G|-------0------------0----------------0----0----0----0-----|
D|---6-------6-----6-------------5-------5----5----5----5---| however many
A|-4---4---4-----4---4---4-----3---3-3-----3----3----3----3-| you want to
E|----------------------------------------------------------| play


And that's about it really :)

Tap to rate this tab
# A B C D E F G H I J K L M N O P Q R S T U V W X Y Z