Song name
# A B C D E F G H I J K L M N O P Q R S T U V W X Y Z

Placebo - A Friend In Need tab

Hey This Is From DANDAMAN!!

Placebo:A Friend In Need

Intro
|-------------------------|-------------------------|
|-------------------------|-------------------------|
|-------------------------|-------------------------|
|-------------------------|-------------------------|
|6----6-----6------6------|6---6----6------6--------|...and so on
|-------------------------|-------------------------|


Riff played with intro on verse

|-------------------------|-------------------------|
|8---8---8----------------|8---8---8----------------|
|--8---8---8-5------------|--8---8---8-5------------|
|8---8---8-----6----------|8---8---8-----6----------|
|-------------------------|-------------------------|
|-------------------------|-------------------------|


chorus

|-------------------------|-------------------------|
|-------------------------|-------------------------|
|-------------------------|-------------------------|
|--------5-6--------------|--------5-6--------------|
|6--6--6-----6--6--6-3-4--|6--6--6-----6--6--6-3-4--|
|-------------------------|-------------------------|


Thets basically it 
Enjoy!
Tap to rate this tab
# A B C D E F G H I J K L M N O P Q R S T U V W X Y Z