Song name
# A B C D E F G H I J K L M N O P Q R S T U V W X Y Z

Placebo - Twenty Years Live tab

----------------------------------------------------------------------------
                          20 Years (Live) - Placebo
----------------------------------------------------------------------------
Tabbed by: endLeveL
Email: elvin@officials.co.uk


Outro (Brian's part)

e|-------------------------------------------------------------------------|
B|-------------------------------------------------------------------------|
G|--7-7-7-7-7-7-7-7-9-9-9-10-10-10-9-9-5-5-5-5-5-5-5-5-9-9-9-10-10-10-9-9--|
D|-------------------------------------------------------------------------|
A|-------------------------------------------------------------------------|
E|-------------------------------------------------------------------------|

e|-------------------------------------------------------------------------|
B|-------------------------------------------------------------------------|
G|--10-10-10-10-10-10-10-10-12-12-12-10-10-10-10-10-9-9-9-9-9-9-9-9-9-9-9--|
D|-------------------------------------------------------------------------|
A|-------------------------------------------------------------------------|
E|-------------------------------------------------------------------------|

e|-------------------------------------------------------------------------|
B|-------------------------------------------------------------------------|
G|--10-10-10-9-9-----------------------------------------------------------|
D|-------------------------------------------------------------------------|
A|-------------------------------------------------------------------------|
E|-------------------------------------------------------------------------|

  Play this 3 times and then

e|--7-7-7-7-7-7-7-7-9-9-9-10-10-10-9-9-5-5-5-5-5-5-5-5-9-9-9-10-10-10-9-9--|
B|-------------------------------------------------------------------------|
G|-------------------------------------------------------------------------|
D|-------------------------------------------------------------------------|
A|-------------------------------------------------------------------------|
E|-------------------------------------------------------------------------|

e|--10-10-10-10-10-10-10-10-12-12-12-10-10-10-10-10-9-9-9-9-9-9-9-9-9-9-9--|
B|-------------------------------------------------------------------------|
G|-------------------------------------------------------------------------|
D|-------------------------------------------------------------------------|
A|-------------------------------------------------------------------------|
E|-------------------------------------------------------------------------|

e|--10-10-10-9-9-7---------------------------------------------------------|
B|-------------------------------------------------------------------------|
G|-------------------------------------------------------------------------|
D|-------------------------------------------------------------------------|
A|-------------------------------------------------------------------------|
E|-------------------------------------------------------------------------|

  Any remarks and comments are welcome.
Tap to rate this tab
 
# A B C D E F G H I J K L M N O P Q R S T U V W X Y Z