Song name
# A B C D E F G H I J K L M N O P Q R S T U V W X Y Z

Placebo - Broken Promise tab

Broken Promise (feat. Michael Stipe)
Placebo, MEDS 2006

Tabbed by Anna.

Tuning E A D G B E

 And you're singing..
                      I wait my turn...     To tear inside you
 -------------------------------------------------------------|
 -------------------------------------------------------------|
 -------------------------------------------------------------|
 --5-5-5-5-5-5-5------5-5-5-5-5-5-5-5--7-7-7-7-7-7-7-7--------|
 --5-5-5-5-5-5-5------5-5-5-5-5-5-5-5--7-7-7-7-7-7-7-7--(x2)--|
 --3-3-3-3-3-3-3------3-3-3-3-3-3-3-3--5-5-5-5-5-5-5-5--------|


 -----------------------------------------------------|
 -----------------------------------------------------|
 -4-4-4-4-4--4-4-4-4-4--4-4-4-4-4---------------------|
 -4-4-4-4-4--4-4-4-4-4--4-4-4-4-4---------------------|
 -2-2-0-2-2--2-2-0-2-2--2-2-0-2-2---------------------|
 -----------------------------------------------------|

 Watch you burn..

 -------------------------------------------------------------|
 -------------------------------------------------------------|
 -------------------------------------------------------------|
 --5-5-5-5-5-5-5------5-5-5-5-5-5-5-5--7-7-7-7-7-7-7-7--------|
 --5-5-5-5-5-5-5------5-5-5-5-5-5-5-5--7-7-7-7-7-7-7-7--(x2)--|
 --3-3-3-3-3-3-3------3-3-3-3-3-3-3-3--5-5-5-5-5-5-5-5--------|
Tap to rate this tab
# A B C D E F G H I J K L M N O P Q R S T U V W X Y Z