Guitaretab - guitar tabs
Song name
# A B C D E F G H I J K L M N O P Q R S T U V W X Y Z

Placebo - Backstage Solo tab

Placebo
"Backstage Solo"
From the live DVD

Tuning down Half Step
Eb Ab Db Gb Bb eb

Play this firs part on a clean setting with the Bridge pickup

|----------------0-----------11-------------------------|
|--------1-----x-0-----------00-------------------------|
|-----0----0---x-0-----------00------------------6^-----|
|---2----------x-2-----7-----00----------7---5h8--------|
|-3------------x-2-2/6---5---22-2\6---9----5------------|
|----------------0-----------33-------------------------|

Now Repeat with the Neck Pickup


Then Play this with HEAVY DISTORTION
[ Tab from: http://www.guitaretab.com/p/placebo/75395.html ]
|---------------xx-----5-3----99999999--7-8-6-10^-2-3-----|
|---------------xx-7-5-----10----------6-6-6-6-------3-2--|
|---------------xx----------------------------------------|
|-------77779999xx----------------------------------------|
|-------55557777xx----------------------------------------|
|-0-0-0---------xx----------------------------------------|

|---------------xx-----5-3----99999999--7-8-6-10^-2-3-----|
|---------------xx-7-5-----10----------6-6-6-6-------3-2--|
|---------------xx----------------------------------------|
|-------77779999xx----------------------------------------|
|-------55557777xx----------------------------------------|
|-0-0-0---------xx----------------------------------------|

|--8-8-8-9-9-7-5-6^---------------------------------------|
|-7-7-7-7-7-7-------999999999999999999910^^/-18^^^~~------|
|---------------------------------------------------------|
|---------------------------------------------------------|
|---------------------------------------------------------|
|---------------------------------------------------------|



Related for Backstage Solo tab
Advertisement will be closed in 10 seconds