Song name
# A B C D E F G H I J K L M N O P Q R S T U V W X Y Z

Placebo - Every Me And Every You tab

-------------------------------------------------------------------------------
			     EVERY YOU, EVERY ME - Placebo
-------------------------------------------------------------------------------
Tabbed by:Luis Gustavo Hernández Collado
Email:ltavo_87@hotmail.com

Tuning:EADGBe

Intro
e|---------------------------------------------------|
B|-3-3-3-3-3-3-3-3-5-5-5-5---3-3-3-3-3-3-3-3---------|
G|-2-2-2-2-3-3-3-3-5-5-5-5---2-2-2-2-3-3-3-3---------| X2
D|-0-0-0-0-0-0-0-0-x-x-x-x---0-0-0-0-0-0-0-0-0-0-0-0-|
A|---------1-1-1-1-3-3-3-3-----------1-1-1-1-1-1-1-1-|
E|-------------------------------------------3-3-3-3-|

Verse 1
(Sucker love is heaven sent, you pucker up our passion's spent...)
e|---------------------------------------------------|
B|-3-3-3-3-3-3-3-3-5-5-5-5---3-3-3-3-3-3-3-3---------|
G|-2-2-2-2-3-3-3-3-5-5-5-5---2-2-2-2-3-3-3-3---------| X2
D|-0-0-0-0-0-0-0-0-x-x-x-x---0-0-0-0-0-0-0-0-0-0-0-0-|
A|---------1-1-1-1-3-3-3-3-----------1-1-1-1-1-1-1-1-|
E|-------------------------------------------3-3-3-3-|

Chorus 1
(Carve your name into my arm, instead of stressed I lie here charmed...)
e|-----------------|
B|---------3-3-3-3-|
G|-3-3-3-3-2-2-2-2-|
D|-3-3-3-3-0-0-0-0-|
A|-1-1-1-1---------|
E|-----------------|

(Every me and every you...)
e|-----------------------------|
B|-----------------------------|
G|-3-3-3-3-3-3-2-2-2-2-6-6-6-6-|
D|-3-3-3-3-3-3-3-3-3-3-7-7-7-7-|
A|-1-1-1-1-1-1-3-3-3-3-7-7-7-7-|
E|-------------1-1-1-1-5-5-5-5-|

Verse 2
(Sucker love a box I choose, no other box I choose to use...)
e|---------------------------------------------------|
B|-3-3-3-3-3-3-3-3-5-5-5-5---3-3-3-3-3-3-3-3---------|
G|-2-2-2-2-3-3-3-3-5-5-5-5---2-2-2-2-3-3-3-3---------| X2
D|-0-0-0-0-0-0-0-0-x-x-x-x---0-0-0-0-0-0-0-0-0-0-0-0-|
A|---------1-1-1-1-3-3-3-3-----------1-1-1-1-1-1-1-1-|
E|-------------------------------------------3-3-3-3-|

Chorus 2
(In the shape of things to come, too much poison come undone...)
e|-----------------|
B|---------3-3-3-3-|
G|-3-3-3-3-2-2-2-2-|
D|-3-3-3-3-0-0-0-0-|
A|-1-1-1-1---------|
E|-----------------|

(Every me and every you...)
e|-----------------------------|
B|-----------------------------|
G|-3-3-3-3-3-3-2-2-2-2-6-6-6-6-|X2
D|-3-3-3-3-3-3-3-3-3-3-7-7-7-7-|
A|-1-1-1-1-1-1-3-3-3-3-7-7-7-7-|
E|-------------1-1-1-1-5-5-5-5-|

Verse 3
(Sucker loves is known to swing, prone to cling and waste this things...)
e|---------------------------------------------------|
B|-3-3-3-3-3-3-3-3-5-5-5-5---3-3-3-3-3-3-3-3---------|
G|-2-2-2-2-3-3-3-3-5-5-5-5---2-2-2-2-3-3-3-3---------| X2
D|-0-0-0-0-0-0-0-0-x-x-x-x---0-0-0-0-0-0-0-0-0-0-0-0-|
A|---------1-1-1-1-3-3-3-3-----------1-1-1-1-1-1-1-1-|
E|-------------------------------------------3-3-3-3-|

Chorus 3
(I'll serve my head upon a plate, it's only comfort calling late...)
e|-----------------|
B|---------3-3-3-3-|
G|-3-3-3-3-2-2-2-2-|
D|-3-3-3-3-0-0-0-0-|
A|-1-1-1-1---------|
E|-----------------|

(Every me and every you...)
e|-----------------------------|
B|-----------------------------|
G|-3-3-3-3-3-3-2-2-2-2-6-6-6-6-|X3
D|-3-3-3-3-3-3-3-3-3-3-7-7-7-7-|
A|-1-1-1-1-1-1-3-3-3-3-7-7-7-7-|
E|-------------1-1-1-1-5-5-5-5-|

Verse 4
(Like the naked leads the blind, I know I'm selfish I'm unkind...)
e|---------------------------------------------------|
B|-3-3-3-3-3-3-3-3-5-5-5-5---3-3-3-3-3-3-3-3---------|
G|-2-2-2-2-3-3-3-3-5-5-5-5---2-2-2-2-3-3-3-3---------| X2
D|-0-0-0-0-0-0-0-0-x-x-x-x---0-0-0-0-0-0-0-0-0-0-0-0-|
A|---------1-1-1-1-3-3-3-3-----------1-1-1-1-1-1-1-1-|
E|-------------------------------------------3-3-3-3-|

Chorus 4/Outro
(All alone in space and time, there's nothing here, but what here's mine ..)
e|-----------------|
B|---------3-3-3-3-|
G|-3-3-3-3-2-2-2-2-|
D|-3-3-3-3-0-0-0-0-|
A|-1-1-1-1---------|
E|-----------------|

(Something borrowed, something blue, every me and every you...)
e|-----------------------------|
B|-----------------------------|
G|-3-3-3-3-3-3-2-2-2-2-6-6-6-6-|X6
D|-3-3-3-3-3-3-3-3-3-3-7-7-7-7-|
A|-1-1-1-1-1-1-3-3-3-3-7-7-7-7-|
E|-------------1-1-1-1-5-5-5-5-|

e|----|
B|----|
G|----|
D|-7--|
A|-7--|
E|-5r-|
r=let ring
Tap to rate this tab
# A B C D E F G H I J K L M N O P Q R S T U V W X Y Z