Song name
# A B C D E F G H I J K L M N O P Q R S T U V W X Y Z

Placebo - Kitsch Object tab

Recovered from the Brick Shithouse tab archive.

Transcribed by Scott Andrews

*NOTE* THIS SONG FEATURES ANOTHER WEIRD TUNING. KEEP ALL THE STRINGS IN
THE STANTARD PLACEBO TUNING
EXCEPT FOR THE THICKEST STIRNG (TOP), WHICH HAS TO BE TUNED UP TO F#

INTRO:*NOTE* THIS IS NOT EXACT STRUMMING, BUT JUST A GUIDE, SO LISTEN TO THE RECORDING.


C  -----------------------------------------------------------|
C  -----------------------------------------------------------|
G# -----------------------------------------------------------|
D# -----------------------------------------------------------|
A# -5--5-5-5-5--8-8-8-8-7-7-7--2-2-3-3--5-5-------------------|REPEAT
F# -----------------------------------------------------------|(X4)

BRIDGE TO CHORUS:

C  -----------------------------------------------------------|
C  -----------------------------------------------------------|
G# -----------------------------------------------------------|
D# -----------------------------------------------------------|
A# -12-12-12-12-12-12-12-12-12-12-12-12-----\-3---------------|REPEAT
F# -0--0--0--0--0--0--0--0--0--0--0--0------0-0---------------|(X8)

CHORUS:

C  ------------------------------------|
C  ------------------------------------|
G# ------------------------------------|
D# ------------------------------------|
A# -12-12-12-10-12-12-10-12------------|REPEAT
F# -0--0--0--0--0--0--0--0-------------|(X4)

VERSE (PART 1):

C  -----------------------------------------------------------|
C  -----------------------------------------------------------|
G# -----------------------------------------------------------|
D# -----------------------------------------------------------|
A# -5--5-5-5-5--8-8-8-8-7-7-7--2-2-3-3--5-5-------------------|REPEAT
F# -----------------------------------------------------------|(X2)

VERSE (PART 2):

C  -----------------------------------------------------------|
C  -----------------------------------------------------------|
G# -----------------------------------------------------------|
D# -----------------------------------------------------------|
A# -5--5-5-5-5-10-10-10-10--7-7-7--2-2-3-3--5-5---------------|REPEAT
F# -----------------------------------------------------------|(X2)
Tap to rate this tab
# A B C D E F G H I J K L M N O P Q R S T U V W X Y Z