Song name
# A B C D E F G H I J K L M N O P Q R S T U V W X Y Z

Placebo - Detox Five tab

-------------------------------------------------------------------------------
			     DETOX FIVE - Placebo
-------------------------------------------------------------------------------
(Detox Five is an instrumental track from the 'Twenty years' single)

Tabbed by:Luis Gustavo Hernndez Collado
Email:ltavo_87@hotmail.com

Tuning:EADGBe

Part I
(Piano)
e|---5-3---3r---5-3--------5-3---3r-----5-3------|
B|-3-----6----------6-5r-------6------3-----6-5r-|
G|-----------------------------------------------|
D|-----------------------------------------------|
A|-----------------------------------------------|
E|-----------------------------------------------|

Part II
(Guitar)
e|---------|
B|-6-8-10r-|
G|---------|X8
D|-3-5-7r--|
A|---------|
E|---------|

(Piano)
e|----------|
B|----------|
G|----------|X4
D|-3r--5-3r-|
A|----------|
E|----------|

Part III
(Piano)
e|---5-3---3r---5-3--------5-3---3r-----5-3------|
B|-3-----6----------6-5r-------6------3-----6-5r-|
G|-----------------------------------------------|
D|-----------------------------------------------|
A|-----------------------------------------------|
E|-----------------------------------------------|

Part IV
(Guitar)
e|---------|
B|-6-8-10r-|
G|---------|X8
D|-3-5-7r--|
A|---------|
E|---------|

(Piano)
e|----------|
B|----------|
G|----------|X4
D|-3r--5-3r-|
A|----------|
E|----------|

Part V
(Synth)
e|---------|
B|---------|
G|---------|X16
D|-3-5-7-3-|
A|---------|
E|-1-3-5-1-|

(Piano)
e|----------|
B|-6-8-10-6-|
G|----------|X12
D|----------|
A|----------|
E|----------|

Part VI
(Piano)
e|---5-3---3r---5-3--------5-3---3r-----5-3------|
B|-3-----6----------6-5r-------6------3-----6-5r-|
G|-----------------------------------------------|
D|-----------------------------------------------|
A|-----------------------------------------------|
E|-----------------------------------------------|

Part VII
(Guitar)
e|---------|
B|-6-8-10r-|
G|---------|X8
D|-3-5-7r--|
A|---------|
E|---------|

(Piano)
e|----------|
B|----------|
G|----------|X4
D|-3r--5-3r-|
A|----------|
E|----------|

Part VIII
(Piano)
e|---5-3---3r---5-3--------5-3---3r-----5-3------|
B|-3-----6----------6-5r-------6------3-----6-5r-|
G|-----------------------------------------------|
D|-----------------------------------------------|
A|-----------------------------------------------|
E|-----------------------------------------------|

Part IX
(Guitar)
e|---------|
B|-6-8-10r-|
G|---------|X8
D|-3-5-7r--|
A|---------|
E|---------|

(Piano)
e|----------|
B|----------|
G|----------|X4
D|-3r--5-3r-|
A|----------|
E|----------|

Part X
(Piano)
e|----------|
B|-6-8-10-6-|
G|----------|X4
D|----------|
A|----------|
E|----------|
Tap to rate this tab
# A B C D E F G H I J K L M N O P Q R S T U V W X Y Z