Song name
# A B C D E F G H I J K L M N O P Q R S T U V W X Y Z

Placebo - Hare Krishna tab

Song: Hare Krishna
Band: Placebo
Tab : CAT

Tuning (E A D G B B)


B -0-0-0--0-0-0-0-0-0-0--0-0-0-0-0-0-0-0-0--|
B -0-0-0--0-0-0-0-0-0-0--0-0-0-0-0-0-0-0-0--|
G -4-4-4--4-4-4-4-4-4-4--4-4-4-4-4-4-4-4-4--|
D ------------------------------------------|
A ------------------------------------------|
E ------------------------------------------|

"The Riff"
(Also played using just single notes/all on a G string.)

B ----------------------------------------------|
B 0--0--0--0--0--0--0--0--0--0--0--0--0--0--0---|
G 11-11-11-11-11-11-11-12-12-13-14-14-14-14-14--|
D ----------------------------------------------|
A ----------------------------------------------|
E ----------------------------------------------|

B --------------------------------------|
B -0-0-0-0-0-0-0-0-0-0-0-0-0-0-0--------|
G -4-4-4-2-6-6-6-6-4-2-0-0-0-0-8--------|
D --------------------------------------|
A --------------------------------------|
E --------------------------------------|

Chorus bit, only noticable change in song:
(Brian sings "raa-maar...")

B ----------------------------|
B -0-0-0-0-0-0-0-0-0-0-0-0----|
G -2-2-2-2-2-2-2-2-2-2-2-2----|
D ----------------------------|
A ----------------------------|
E ----------------------------|
Tap to rate this tab
# A B C D E F G H I J K L M N O P Q R S T U V W X Y Z