Song name
# A B C D E F G H I J K L M N O P Q R S T U V W X Y Z

Placebo - Waiting For The Son Of Man tab

Waiting for the Son of Man.
 
From the Brick Shithouse tab archive, which is no more. Recovered by web.archive.org

Tabbed by Brendan.
 
In the standard Placebo tuning (F Bb Eb Ab C C)
 
This is as correct as I can do these things.

[Intro]
 
|---------------------------------|
|--------x---x-----x-x------------|
|--------x-6-x-6-6-x-x---x---x-x--|
|--3-s-4-x-4-x-4-4-x-x-6-x-5-x-x--|
|---------------------------------|
|---------------------------------|
 
[Verses]
 
Repeatedly strum this: xx4666 while doing one of the two other guitar
phrases, ideally on a second guitar (or bass?), though you can manage
with one.
 
|-------------|      |----------------------|
|-------------|      |----------------------|
|-------------|  or  |----------------------|
|--4-4-x-3----|      |--4-4-x-3-------------|
|----------4--|      |----------4--4-s-0-1--|
|-------------|      |----------------------|
 
[Chorus]
 
This is two different parts, this:
 
|--17-17-17-17-17-17-17-17--|--15-15-15-15-15-18-18-18--|
|--17-17-17-17-17-17-17-17--|--15-15-15-15-15-18-18-18--|
|--16-16-16-16-16-16-16-16--|--15-15-15-15-15-17-17-17--|
|---------------------------|---------------------------|
|---------------------------|---------------------------|
|---------------------------|---------------------------|
 
and this:
 
|-----------------------------------------------------|
|-----------------------------------------------------|
|-----------------------------------------------------|
|-----------------------------------------------------|
|--8-h-9-9-9-x-9-h-11-11-11-x-11-x-4-h-6-6-6-0-0-0-0--|
|-----------------------------------------------------|
Tap to rate this tab
# A B C D E F G H I J K L M N O P Q R S T U V W X Y Z