Song name
# A B C D E F G H I J K L M N O P Q R S T U V W X Y Z

Placebo - Then The Clouds Will Open For Me tab

THEN THE CLOUDS WILL OPEN FOR ME

TABBED BY SCOTT ANDREWS

TUNING (E A D G B E)

E  ---------------------------------------------------|
B  ---------------------------------------------------|
G  ---------------------------------------------------|
D  -3-3-3-3-3-3-3-3-3-3-3-3-3-2-2-2-2-2-2-2-2-2-2-2-2-|
A  -3-3-3-3-3-3-3-3-3-3-3-3-3-2-2-2-2-2-2-2-2-2-2-2-2-|
E  -1-1-1-1-1-1-1-1-1-1-1-1-1-0-0-0-0-0-0-0-0-0-0-0-0-|


"I CAN'T BE ALONE".... BIT (LISTEN TO TRACK FOR EXACT STRUMMING)
E  -0--0--0--0--0--0--0--0--0-0-0-0-0-0-0-0---|
B  -0--0--0--0--0--0--0--0--0-0-0-0-0-0-0-0---|
G  -9--9--9--9--9--9--9--9--0-0-0-0-0-0-0-0---|
D  -10-10-10-10-10-10-10-10-2-2-2-2-2-2-2-2---|
A  -10-10-10-10-10-10-10-10-2-2-2-2-2-2-2-2---|
E  -8--8--8--8--8--8--8--8--0-0-0-0-0-0-0-0---|


"SCATTER THE ASHES"....BIT                          *  *  *  *
E  -------------------------------------------------0--0--0--0--|
B  -------------------------------------------------0--0--0--0--|
G  -------------------------------------------------0--0--0--0--|
D  -5-5-5-5-5-5-5-5-5-5-5-5-9-9-9-9-9-9-9-9-9-9-9-9-10-10-10-10-|
A  -5-5-5-5-5-5-5-5-5-5-5-5-9-9-9-9-9-9-9-9-9-9-9-9-10-10-10-10-|
E  -3-3-3-3-3-3-3-3-3-3-3-3-7-7-7-7-7-7-7-7-7-7-7-7-8--8--8--8--|
                                                    (PLAY AROUND
                                                 WITH THIS BIT*)

"TRANS-LIKENED"....(ONCE AGAIN, NOT EXACT STRUMMING, SO PLAY WITH IT!)
E  -0-0-0-0-0-0-0-0-3-3-3-3-3-3-3-3-3------|
B  -1-1-0-0-1-1-0-0-3-3-3-3-3-3-3-3-3------|
G  -0-0-0-0-0-0-0-0-0-0-0-0-0-0-0-0-0------|
D  -3-3-3-3-3-3-3-3-0-0-0-0-0-0-0-0-0------|
A  -3-3-3-3-3-3-3-3-2-2-2-2-2-2-2-2-2------|
E  -----------------3-3-3-3-3-3-3-3-3------|


"THEN THE CLOUDS WILL"....(RULE AS ABOVE)
C  -0--0--0--0--0--0--0--0--0--0--0--0-------------------------|
C  -0--0--0--0--0--0--0--0--0--0--0--0-------------------------|
G# -9--9--9--9--9--9--9--9--9--9--9--9---9-9-9-9-9-9-9-9-9-9-9-|
D# -10-10-10-10-10-10-10-10-10-10-10-10--9-9-9-9-9-9-9-9-9-9-9-|
A# -10-10-10-10-10-10-10-10-10-10-10-10--7-7-7-7-7-7-7-7-7-7-7-|
F  -8--8--8--8--8--8--8--8--8--8--8--8---0-0-0-0-0-0-0-0-0-0-0-|
Tap to rate this tab
 
# A B C D E F G H I J K L M N O P Q R S T U V W X Y Z