Song name
# A B C D E F G H I J K L M N O P Q R S T U V W X Y Z

Placebo - Needledick tab

TABBED BY SCOTT ANDREWS

STANDARD PLACEBO GUITAR TUNING (F A# D# G# C C)

C  ------------------------------------------|
C  ------------------------------------------|
G# -----------15--15--------------15-15------|
D# --------14--------14-------14-------------|
A# -13--13--------------13-13------------13--|
F  ------------------------------------------|


C  ---------------------------------------------|
C  ---------------------------------------------|
G# -----------15-----15--------15---------------|
D# --------14----------------------14-----------|
A# -13--13-------13------13-13------------------|
F  ---------------------------------------------|REPEAT WHOLE LOT TWICE


SECOND GUITAR (00:13 SECS INTO SONG)
C  ----------------------------------------------|
C  ----------------------------------------------|
G# ---------3------------3-------3------------3--|
D# --2-2----------2---2------2-----2----2----2---|
A# ------1----------1----------1----------1------|
F  ----------------------------------------------|


(00:26 SECS INTO SONG)
C  ------------------------------------------|
C  ------------------------------------------|
G# -------15---15---------------15-----------|
D# ----14---14----14--------14---------------|
A# -13---------------13--13------------------|
F  ------------------------------------------|


C  ------------------------------------------|
C  ------------------------------------------|
G# ----------15-15--------------15-----------|
D# -------14-------14-------14---------------|
A# -13-13-------------13-13------------------|
F  ------------------------------------------|


(00:39 SECS INTO SONG)
C  ------------------------------------------|
C  ------------------------------------------|
G# -----------------3------------3-----------|
D# -2--2---2----2------2--2---2-----2---2----|
A# ------1--------1---------1---------1----1-|
F  ------------------------------------------|

******electronic overdubbed drums************

(00:55 SECS INTO SONG)
C  ------------------------------------------|
C  ------------------------------------------|
G# ----------15-15-------------15-15---------|
D# -------14-------14-------14-------14------|
A# -13-13-------------13-13------------------|
F  ------------------------------------------|

C  ------------------------------------------|
C  ------------------------------------------|
G# ----------15-15---------------------------|
D# -------14-------14-------14---------------|
A# -13-13-------------13-13----13------------|
F  ------------------------------------------|
Tap to rate this tab
# A B C D E F G H I J K L M N O P Q R S T U V W X Y Z