Song name
# A B C D E F G H I J K L M N O P Q R S T U V W X Y Z

Placebo - The Innocence Of Sleep tab

TABBED BY SCOTT ANDREWS

STANDARD PLACEBO TUNING (F A# D# G# C C)


C  ------------------------------------------|
C  ------------------------------------------|
G# -----------------0-0-0-0-0-0-0-0----------|
D# -9-9-9-9-9-9-9-9-2-2-2-2-2-2-2-2----------|
A# ------------------------------------------|
F  ------------------------------------------|REPEAT THROUGHOUT SONG

 PICKED BIT (THIS IS RIGHT FOR THE FIRST ONE, BUT THE OTHERS SWAP THE 9 AND 10 AROUND)
 PLAY AROUND WITH IT.
C  -------12-------------12-------------12------------12--------|
C  ----13-0---10------13-0----10-----15-0----10----13-0----10---|
G# -12-------9-----12-------9-----14-------9----12-------9------|
D# -------------------------------------------------------------|
A# -------------------------------------------------------------|
F  -------------------------------------------------------------|


WEIRD PART (UNDERPINNED BY OCCASIONAL KEYBOARD PLAYING "G")
C  -0--0--0--0--0--0--0--0--0--0--0--0--0--0--|
C  -13-13-13-13-13-13-13-12-12-12-12-12-12-12-|
G# -12-12-12-12-12-12-12-12-12-12-12-12-12-12-|
D# -------------------------------------------|
A# -------------------------------------------|
F  -------------------------------------------|

C  -0--0--0--0--0--0--0--0--0--0--0--0--0--0--|
C  -15-15-15-15-15-15-15-13-13-13-13-13-13-13-|
G# -12-12-12-12-12-12-12-12-12-12-12-12-12-12-|
D# -------------------------------------------|
A# -------------------------------------------|
F  -------------------------------------------|


C  -0--0--0--0--0--0--0--0--0--0--0--0--0--0--|
C  -12-12-12-12-12-12-12-10-10-10-10-10-10-10-|
G# -12-12-12-12-12-12-12-12-12-12-12-12-12-12-|
D# -------------------------------------------|
A# -------------------------------------------|
F  -------------------------------------------|

C  -0--0--0--0--0--0--0--|
C  -15-15-15-15-15-15-15-|
G# -12-12-12-12-12-12-12-|
D# ----------------------|
A# ----------------------|
F  ----------------------|
Tap to rate this tab
 
# A B C D E F G H I J K L M N O P Q R S T U V W X Y Z