Song name
# A B C D E F G H I J K L M N O P Q R S T U V W X Y Z

Places To Park - Blazing Trails tab

Hey everyone, this is my first tab on UG but i'm pretty sure this song is 100% accurate,
not then 99.9%  Places To Park is an awesome band that unfortunately not too many
know about and i saw that UG didn't have any tabs for Places To Park so i decided to tab 
first single.  Hope you enjoy and buy the Places To Park CD entitled Better Sights Were Set!!!


Guitar 1:

Intro
E|---------------------------------------------------|
B|---------------------------------------------------|
G|-7-7-7--------12-12-12-----12-12-12-12-------------| 4x, except 7x5 which
D|-x-x-x-(x16)---x-x--x-(x7)-x--x--x--x--------------| goes 8x thru the
A|-5-5-5--------10-10-10-----9--9--9--10-------------| verse
E|---------------------------------------------------|

Chorus

E|---------------------------------|
B|---------------------------------|
G|-7---------------7---------------|
D|-7-(x24)-5-------7-(x24)-5-------|
A|-5-------5-(x24)-5-------5-(x24)-|
E|---------3---------------3-------|

E|-------------------------------------------------------|
B|-------------------------------------------------------|
G|4----------------5-5-5-5-5-5-7-7-7-9-9-9---------------|
D|4-(x14)-5--------5-5-5-5-5-5-7-7-7-9-9-9--5------------| (x2)
A|2-------5-(x14)--3-3-3-3-3-3-5-5-5-7-7-7--5-(x10)------|
E|--------3---------------------------------3------------|

Repeat Intro only this time it goes 2x

Chorus

E|------------------------------------------|
B|------------------------------------------|
G|------------------------------------------|
D|-7-7-7-7-7-7--5-5-5-5-5-5-----------------| (x3)
A|-7-7-7-7-7-7--5-5-5-5-5-5-----------------|
E|-5-5-5-5-5-5--3-3-3-3-3-3-----------------|

E|-----------------------------------------------------|
B|-----------------------------------------------------|
G|-7-7-7-7-7-7-----------------------------------------|
D|-7-7-7-7-7-7-7-7-7-7-7-7-5-5-5-5-5-5-----------------|
A|-5-5-5-5-5-5-7-7-7-7-7-7-5-5-5-5-5-5-----------------|
E|-------------5-5-5-5-5-5-3-3-3-3-3-3-----------------|

E|-----------------------------------------------|
B|-----------------------------------------------|
G|-7-------------12------------------------------|
D|-x-(hold note)--x-(hold note)------------------| (2x)
A|-5-------------10------------------------------|
E|-----------------------------------------------|

E|----------------------------------------------------|
B|-7------|------7----|------------7-8-7---7----------|
G|---9-7--|7-9-7---9-7|-(2x)-7-9-7-------9---9-7------|
D|----------------------------------------------------| whole bar 6x
A|----------------------------------------------------|
E|----------------------------------------------------|

E|---------------------------------|
B|---------------------------------|
G|-7---------------7---------------| (3x)
D|-7-(x24)-5-------7-(x24)-5-------|
A|-5-------5-(x24)-5-------5-(x24)-|
E|---------3---------------3-------|


E|----------------------|
B|----------------------|
G|-7--------------------|
D|-7-(x22)-7-7-7--5-----|
A|-5-------7-7-7--5-----|
E|---------5-5-5--3-----|


----------------------------------------------------------------------------
                              Guitar 2
Intro (comes after guitar 1's 7x5 sixteen times
E|---------------------------------------|
B|---------------------------------------|
G|-7-7--7--------------------------------|
D|-7-7--7-(x32)--------------------------|
A|-5-5--5--------------------------------|
E|---------------------------------------|
   . .

Verse
E|---------------------------------------|
B|---------------------------------------|
G|-7-7--7--------------------------------|
D|-7-7--7-(x32---------------------------|
A|-5-5--5--------------------------------|
E|---------------------------------------|
   . .

Chorus
E|---------------------------------------|
B|-2-3-2-5-3-2-3-(x10)-------------------|
G|---------------------------------------|
D|---------------------------------------|
A|---------------------------------------|
E|---------------------------------------|


E|---------------------------------------|
B|---------------------------------------|
G|-7-7--7--------------------------------|
D|-7-7--7-(x16)--------------------------|
A|-5-5--5--------------------------------|
E|---------------------------------------|
   . .

2nd Verse
E|---------------------------------------|
B|-2-3-2-5-3-2-3-(x8)--------------------|
G|---------------------------------------|
D|---------------------------------------|
A|---------------------------------------|
E|---------------------------------------|

Chorus

E|-----
B|-----
G|-7---
D|-x--- hold out note
A|-5---
E|-----

E|---------------------------------------|
B|-2-3-2-5-3-2-3--(x12)------------------|
G|---------------------------------------|
D|---------------------------------------|
A|---------------------------------------|
E|---------------------------------------|

Chorus x3


Thats it!!!  Enjoy and please add more tabs for Places To Park cuz there are absolutely
other than mine!!!

If there are any corrections that need to be made, send to xalteredstatex@yahoo.com

http://www.volcoment.com/
Tap to rate this tab
# A B C D E F G H I J K L M N O P Q R S T U V W X Y Z