Plague Of Happiness - Malam tab

From barai :)
Enjoy with this song.

Verse:
|--6--5--6--8---|
|--6--6--8--10--|
|--7--7--8--10--|    X2
|--8--7--8--10--|
|---------------|
|---------------|

|--5--6--3--8---|
|--6--8--4--10--|
|--7--8--5--10--|
|--7--8--5--10--|
|---------------|
|---------------|

Pre verse:
|--6--5--6--8---|
|--6--6--8--10--|
|--7--7--8--10--|
|--8--7--8--10--|
|---------------|
|---------------|

Or
|-----------------------------------------------------|
|--11~--11-10--10--10---------------------------------|
|------------12------12-10-12--12-10--10--10----------|
|-----------------------------------13------13-12-10--|
|-----------------------------------------------------|
|-----------------------------------------------------|

Repeat verse.

Solo:
|------------------------------------------------------------------------|
|------------------------------10--11-10-10-11-10-------11111111-13-15---|
|-------------------------10-12------------------10-----10101010-12-14---|
|--10-12--10-12--10-12--12-------------------------12--------------------|
|------------------------------------------------------------------------|
|------------------------------------------------------------------------|

|------------------------------------------10-13~-----13-----13--13------|
|-----------11--11-13--11-------------11-13------13-11--11-10------------|
|--10-12^-12-------------12-12-10~--10........................12--12-10--|
|------------------------------------------------------------------------|
|------------------------------------------------------------------------|
|------------------------------------------------------------------------|

|------------------------------------------------------------------------|
|------------------------1111-1313-1515-1313-16161616-13-15-16-15--------|
|--12-12^-----10-12-10---1010-1212-1414-1212-15151515-12-----------------|
|--------10h12-----------------------------------------------------------|
|------------------------------------------------------------------------|
|------------------------------------------------------------------------|

|---------------------------------|
|--13-15-13--11-13-11--13-15-15~--|
|---------------------------------|
|---------------------------------|
|---------------------------------|
|---------------------------------|

Just for fun.
|------------------------------------------------------------------------------|
|---------10~--10-11-13-13--11-10-11--10---------11~-11-10-----------10h11-10--|
|---------------------------------------12-10--10---------12-10-10h12----------|
|--10~-12~---------------------------------------------------------------------|
|------------------------------------------------------------------------------|
|------------------------------------------------------------------------------|

|-------------------------------5~--6~--3~--8~---|
|-------------------------------6~--8~--4~--10~--|
|--10/12-10~----------14~--10~--7~--8~--5~--10~--|
|-----------13-12-10~-----------7~--8~--5~--10~--|
|-------------------------------5~--6~--3~--8~---|
|------------------------------------------------|

Repeat verse til the end. :)
Tap to rate this tab
 
# A B C D E F G H I J K L M N O P Q R S T U V W X Y Z