Song name
# A B C D E F G H I J K L M N O P Q R S T U V W X Y Z

Plaid - Eyen tab

Artist: Plaid
Title: Eyen
Album: Double Figure
Official Website: http://www.plaid.co.uk/
Tabbed by: Tuvan Soykan

Tuning: Standart

e|--1-------1--------|--0-------0--------|-------------------|-------------------|
B|------3-------3----|------1-------1----|--3-------3--------|--5-------5--------|
G|----2---2---2---2--|----2---2---2---2--|------2-------2----|------4-------4----|
D|-------------------|-------------------|----4---4---4---4--|----6---6---6---6--|
A|-------------------|-------------------|-------------------|-------------------|
E|-------------------|-------------------|-------------------|-------------------|

e|--1-------1--------|--0-------0--------|--2-------2--------|--4-------4--------|
B|------1-------1----|------1-------1----|------3-------3----|------5-------5----|
G|----2---2---2---2--|----2---2---2---2--|----2---2---2---2--|----4---4---4---4--|
D|-------------------|-------------------|-------------------|-------------------|
A|-------------------|-------------------|-------------------|-------------------|
E|-------------------|-------------------|-------------------|-------------------|
Tap to rate this tab
# A B C D E F G H I J K L M N O P Q R S T U V W X Y Z