Song name
# A B C D E F G H I J K L M N O P Q R S T U V W X Y Z

Plain White Ts - Please Dont Do This tab

Plain White T's
Please Don't Do This
Stop

i never really listened to the song before but i was listening to it on itunes and it 
easy so this is my try at it which i'm pretty sure is like 100%

Intro: twice
E--------------------|
B-7p5-4p0~---7p5-4h7-|
G--------------------|
D--------------------|
A--------------------|
E--------------------|

Verse: twice
E------------------------------------|
B------------------------------------|
G-4-4---------------4-4--------------|
D-4-4-----4-4--2-2--4-4-----4-4--2-2-|
A-2-2-----4-4--2-2--2-2-----4-4--2-2-|
E---------2-2--0-0----------2-2--0-0-|

Pre-chorus:
E-----------------------------------------------------------------|
B-----------------------------------------------------------------|
G-----------------------------------------------------------------|
D-6-6-6-6-6-6-6-6-2-2-2-2-2-2-2-2-6-6-6-6-6-6-6-6-2-2-2-2-4-4-4-4-|
A-6-6-6-6-6-6-6-6-2-2-2-2-2-2-2-2-6-6-6-6-6-6-6-6-2-2-2-2-4-4-4-4-|
E-4-4-4-4-4-4-4-4-0-0-0-0-0-0-0-0-4-4-4-4-4-4-4-4-0-0-0-0-2-2-2-2-|

Chorus:
E--------------------------------------------------|
B--------------------------------------------------|
G---4--4-------------------------------------------|
D---4--4--4--4--2--2--4--4--6--6--4--4--2--2--2--2-|
A---2--2--4--4--2--2--4--4--6--6--4--4--2--2--2--2-|
E---------2--2--0--0--2--2--4--4--2--2--0--0--0--0-|

E--------------------------------------------------------------|
B--------------------------------------------------------------|
G---4--4-------------------------------------------------------|
D---4--4--4--4--2--2--4--4--6--6--4--4--2--2--2--2--6--6--4--4-|
A---2--2--4--4--2--2--4--4--6--6--4--4--2--2--2--2--6--6--4--4-|
E---------2--2--0--0--2--2--4--4--2--2--0--0--0--0--4--4--2--2-|

Verse: twice
E------------------------------------|
B------------------------------------|
G-4-4---------------4-4--------------|
D-4-4-----4-4--2-2--4-4-----4-4--2-2-|
A-2-2-----4-4--2-2--2-2-----4-4--2-2-|
E---------2-2--0-0----------2-2--0-0-|

Pre-chorus:
E-----------------------------------------------------------------|
B-----------------------------------------------------------------|
G-----------------------------------------------------------------|
D-6-6-6-6-6-6-6-6-2-2-2-2-2-2-2-2-6-6-6-6-6-6-6-6-2-2-2-2-4-4-4-4-|
A-6-6-6-6-6-6-6-6-2-2-2-2-2-2-2-2-6-6-6-6-6-6-6-6-2-2-2-2-4-4-4-4-|
E-4-4-4-4-4-4-4-4-0-0-0-0-0-0-0-0-4-4-4-4-4-4-4-4-0-0-0-0-2-2-2-2-|

Chorus:
E------------------------------------------------|
B------------------------------------------------|
G-4--4-------------------------------------------|
D-4--4--4--4--2--2--4--4--6--6--4--4--2--2--2--2-|
A-2--2--4--4--2--2--4--4--6--6--4--4--2--2--2--2-|
E-------2--2--0--0--2--2--4--4--2--2--0--0--0--0-|

E---------------------------------------------------------|
B---------------------------------------------------------|
G-4--4----------------------------------------------------|
D-4--4--4--4--2--2--4--4--6--6--4--4--2--2--2--2--6--6--4-|
A-2--2--4--4--2--2--4--4--6--6--4--4--2--2--2--2--6--6--4-|
E-------2--2--0--0--2--2--4--4--2--2--0--0--0--0--4--4--2-|


Break: 4 times
E--------------------|
B-7p5-4p0~---7p5-4h7-|
G--------------------|
D--------------------|
A--------------------|
E--------------------|

Bridge: 3 times
E---------------------------------|
B---------------------------------|
G---------------------------------|
D-4-4-4-4-4-4-4-4-6-6-6-6-6-6-6-6-|
A-4-4-4-4-4-4-4-4-6-6-6-6-6-6-6-6-|
E-2-2-2-2-2-2-2-2-4-4-4-4-4-4-4-4-|

then
E-----------------|
B-----------------|
G-----------------|
D-4-4-4-4-4-4-4-4-|
A-4-4-4-4-4-4-4-4-|
E-2-2-2-2-2-2-2-2-|

Pre-chorus: twice
E-----------------------------------------------------------------|
B-----------------------------------------------------------------|
G-----------------------------------------------------------------|
D-6-6-6-6-6-6-6-6-2-2-2-2-2-2-2-2-6-6-6-6-6-6-6-6-2-2-2-2-4-4-4-4-|
A-6-6-6-6-6-6-6-6-2-2-2-2-2-2-2-2-6-6-6-6-6-6-6-6-2-2-2-2-4-4-4-4-|
E-4-4-4-4-4-4-4-4-0-0-0-0-0-0-0-0-4-4-4-4-4-4-4-4-0-0-0-0-2-2-2-2-|

2nd time add on this
E-----------------|
B-----------------|
G-----------------|
D-4-4-4-4-4-4-4-4-|
A-4-4-4-4-4-4-4-4-|
E-2-2-2-2-2-2-2-2-|

Chorus:
E----------------------------|
B----------------------------|
G-4~-------------------------|
D-4~--6--6--4--4--2--2--2--2-|
A-2~--6--6--4--4--2--2--2--2-|
E-----4--4--2--2--0--0--0--0-|

E------------------------------------------------|
B------------------------------------------------|
G-4--4-------------------------------------------|
D-4--4--4--4--2--2--4--4--6--6--4--4--2--2--2--2-|
A-2--2--4--4--2--2--4--4--6--6--4--4--2--2--2--2-|
E-------2--2--0--0--2--2--4--4--2--2--0--0--0--0-|

E------------|
B------------|
G------------|
D-6--6--4--4-|
A-6--6--4--4-|
E-4--4--2--2-|

Outro: 4 times
E--------------------|
B-7p5-4p0~---7p5-4h7-|
G--------------------|
D--------------------|
A--------------------|
E--------------------|

That's the song. Pretty basic. Well, have fun.
Questions?
Email at Coldfry1@aol.com
Tap to rate this tab
 
# A B C D E F G H I J K L M N O P Q R S T U V W X Y Z