Guitaretab - guitar tabs
Song name
# A B C D E F G H I J K L M N O P Q R S T U V W X Y Z

Plain White Ts - 1234 tab

Intro:
D, A, Bm, A, G, D

intro riff

-------------------------------7---9---10-----10---12p10---10------|
--10----7---10-----10-------10-------------------------------------|
---------------9-------7-------------------------------------------|
-------------------------------------------------------------------|
-------------------------------------------------------------------|
-------------------------------------------------------------------|


Verse 1:
D
give me more lovin then i've ever had.
A
make it all better when i'm feelin sad.
Bm                                            A
tell me that i'm special even when i know i'm not.
D
make me feel good when i hurt so bad.
A
barely gettin mad,
              Bm
im so glad i found you.
               A
i love bein around you.
             G
you make it easy,

           A
as easy as 1 2,(1 2 3 4.)


Chorus:
             D         A       Bm          A    G
theres only one thing two do three words four you.
    D
i love you.
(i love you)

             D       A              Bm
theres only one way two say those three words
      A               G
and that's what i'll do.

    D
i love you.
(i love you)

Verse 2:
D
give me more lovin from the very start.
A
piece me back together when i fall apart.
Bm                                               A
tell me things you never even tell your closest friends.
D
make me feel good when i hurt so bad.
A                                      Bm
best that i've had im so glad that i found you.
A
i love bein around you.

             G              A
you make it easy as easy as 1 2,(1 2 3 4.)
[ Tab from: http://www.guitaretab.com/p/plain-white-ts/116636.html ]
Chorus:
             D         A      Bm          A     G
theres only one thing two do three words four you.
   D
i love you.

             D      A              Bm
theres only one way two say those three words
    A                 G
and that's what i'll do.
     D
i love you.  i love you

------------------------------------------------------------------------------|
-6/7--7-7-7--------7-7---6/7--7-7-7---------7-7--6/7--7-7-7-------7-7---------|
------------9-7-9--------------------9-7-9------------------9-7-9-----7-9-8---|
----------------------------------------------------------------------------7-|
------------------------------------------------------------------------------|
------------------------------------------------------------------------------|

------------------------------------------------------------------------------|
-6/7--7-7-7--------7-7---6/7--7-7-7---------10-8-7---7----5-------------------|
------------9-7-9--------------------7-------------9----7---7-6---------------|
----------------------------------------------------------------7-------------|
------------------------------------------------------------------------------|
------------------------------------------------------------------------------|


             G                A
you make it easy, its easy as 1234

Single Strum chords:

            D          A      Bm         A      G
theres only one thing two do three words four you
   D
i love you

Pickup Rhythm

             D       A             Bm
theres only one way two say those three words
A                G
thats what ill do
   D
i love you

(play intro Riff till end)
Related for 1234 tab
1234 chords by Plain White Ts