Guitaretab - guitar tabs
Song name
# A B C D E F G H I J K L M N O P Q R S T U V W X Y Z

Plain White Ts - Shine tab

-Plain White T's-
-Shine-

Standard Tuning

Stumming Pattern is Pretty Easy to Figure Out.

Intro/Verse (Guitar 1)
e|----------------------(3)(3)---------------------(3)(3)--|
B|-----0h1--1--1----0h1--1--1-----0h1--1--1----0h1--1--1---|
G|-----0----0--0----0----0--0-----0----0--0----0----0--0---|
D|---------------------------------------------------------|
A|--3------------3-------------0-------------0-------------|
E|---------------------------------------------------------|

e|----------------------(3)(3)--------------------|
B|-----0h1--1--1----0h1--1--1-------0h1--1--1p0---|
G|-----0----0--0----0----0--0-------0----0--0-----|
D|------------------------------------------------|
A|------------------------------------------------|
E|--1------------1---------------3----------------|

Verse (Guitar 2)
e|------------------------------------------------------|
B|---888-666-555-333-1/00--------888-666-555-333-1/3----|
G|---999-777-555-444-2/00--------999-777-555-444-2/4----|
D|------------------------------------------------------|
A|------------------------------------------------------|
E|------------------------------------------------------|

Pre-Chorus
    F   Am  F   G
e|--1---0---1---3--|
B|--1---1---1---3--|
G|--2---2---2---4--|
D|--3---2---3---5--|
A|--3---0---3---5--|
E|--1---x---1---3--|
[ Tab from: http://www.guitaretab.com/p/plain-white-ts/137836.html ]
Chorus
    C   Am  F   G
e|--0---0---1---3--|
B|--1---1---1---3--|
G|--0---2---2---4--|
D|--2---2---3---5--|
A|--3---0---3---5--|
E|--x---x---1---3--|

Bridge
    F   C   G   Am    F   Am  G
e|--1---0---3---0--|--1---0---3--|
B|--1---1---3---1--|--1---1---3--|
G|--2---0---4---2--|--2---0---4--|
D|--3---2---5---2--|--3---2---5--|
A|--3---3---5---0--|--3---3---5--|
E|--1---x---3---x--|--1---x---3--|



[Verse]
You know it tears me up inside
To see the feelings that you hide
Hide inside that empty bottle
I wish you saw how great you were
I wish you saw what life was worth
You wouldn't have to hide your problems

[Pre-Chorus]
And I don't care what you might think
I think you've had too much to drink
Can't even talk when you're this way

[Chorus]
Runaway, runaway
But that won't make it any better
Runaway, runaway
And make tomorrow
Harder to live than today

[Verse]
There's so much out there you could miss
There's so much life out there to live
If you would just believe in yourself
You know you're better than all of this
You know you've got so much to give
But you're so afraid to give of yourself

[Pre-Chorus]
[Chorus]

[Bridge]
There's a bright light shining inside you
It shines out through your eyes
Don't drown it away, don't be afraid
Don't hide
Let it shine

[Verse]
You say you're looking for happiness
But when it comes, you runaway from it
You tell yourself you don't deserve it
There's not much more that I can do
Now the rest is up to you
Until you love yourself, you'll never change

[Chorus]
(You'll keep on running)
(Until you deal with today)

[chorus]
Related for Shine tab
Shine chords by Plain White Ts