Song name
# A B C D E F G H I J K L M N O P Q R S T U V W X Y Z

Plain White Ts - Breakdown tab

Help us improve GuitareTab! Take a short survey!
Plain White T’s- Breakdown

Standard tuning- E A D G B e


Intro
E|---------------------------------------------|
B|---------------------------------------------|
G|-9-8-6--9-8-6--9-8-6--9-8-6--9-8-6-----------|
D|---------------------------------------------| 
A|---------------------------------------------|
E|---------------------------------------------|

Verse (palm muted over and over)   “I’ve seen ‘em both fight…”
E|-----------------------------------------------------------|
B|-5-5-5-5-5-5-5-5-5-----------------------------------------|
G|-6-6-6-6-6-6-6-6-6-----------------------------------------|
D|-----------------------------------------------------------|
A|-----------------------------------------------------------|
E|-----------------------------------------------------------|

Pre Chorus   “it won’t stop if they don’t stop yelling…”
E|-------------------9------------------------------------------------|
B|-12----9--------12---9----12----9-----9-----------------------------|
G|----11---9---11--------------11---9---9-----------------------------|
D|--------------------------------------7---------1-2-1---------------|
A|--------------------------------------------2-4-------2-------------|
E|--------------------------------------------------------------------|

Chorus “I’m gonna drive and never ever slow down…”
E|------------------------------|
B|------------------------------|
G|------------------------------|
D|-7-7-7--9-9-9-9-9-9--11-11----|
A|-7-7-7--9-9-9-9-9-9--11-11----|
E|-5-5-5--7-7-7-7-7-7--9--9-----|

Solo
E|--------------------------------------------------------------------------|
B|---------5~-----------5-4-------------------------------------------------|
G|-/4-6-4-6----4-6-4-6-6-----/4-6-4-6-6-6/1-1-4-6-6-4-6---------------------|
D|--------------------------------------------------------------------------|
A|--------------------------------------------------------------------------|
E|--------------------------------------------------------------------------|

E|--------------------------------------------------------------------------|
B|---------9~-------5-4-5-4-2-0---------------------------------------------|
G|-/4-6-4-6---4-6-4---------------------------------------------------------|
D|-----------------------------------------1-2-1----------------------------|
A|-------------------------------------2-4-------2--------------------------|
E|--------------------------------------------------------------------------|


 
Intro x4
Verse
Pre Chorus
Chorus x 4
Intro x2
Verse
Pre Chorus
Chorus x4
Intro x4
Solo
Chorus x8
Intro x4
Related for Breakdown tab