Song name
# A B C D E F G H I J K L M N O P Q R S T U V W X Y Z

Plain White Ts - Tearing Us Apart tab

Intro: C#m---

e-------------------------------------I
b-----55-----55-----55----55----------I
g-----66-----66-----66----66----------I
d--66-----66-----66-----66------------I
a--44-----44-----44-----44------------I
E-------------------------------------I

verse:

e-----------------------------------------I
b-----------------------------------------I
g-----------------------------------------I
d--66x-66x-66x-44x-99x-99x-99x--9x-99x----I
a--44x-44x-44x-22x-77x-77x-77x--7x-77x----I
E-----------------------------------------I

e-----------------------------------------I
b-----------------------------------------I
g-----------------------------------------I
d--66x-66x-66x-44x-99x-99x-99x--9x-99x----I
a--44x-44x-44x-22x-77x-77x-77x--7x-77x----I
E-----------------------------------------I

C#m                 B         E
I just got off the phone with you
And something wasn't right
C#m                 B        E
I wish that what I said was true
But I messed up tonight

Chorus:
A           B         C#m
I wish that you could understand the way
A       B        C#m 
I felt when she looked at me today
A     B        E
Oh oh oh oh oh oh
G#m            A                B
Oh when did I start tearin' us apart?
                  C#m-E---B-C#m
I'm tearin' us apart

e-----------------------------------------I
b-----------------------------------------I
g-----------------------------------------I
d--66x-66x-66x-99x-99x-99x-9-9-9-9-4-6----I
a--44x-44x-44x-77x-77x-77x-7-7-7-7-2-4----I
E-----------------------------------------I

e--------------------I
b---4-55-97-97-45----I
g--6-----------------I
d--------------------I
a--------------------I
E--------------------I

C#m                 B         E
I just got off the phone with you
Like any other night
C#m                   B         E
I know that I said I loved you too
But she was on my mind

Chorus:
A           B         C#m
I wish that you could understand the way
A       B        C#m 
I felt when she looked at me today
A     B        E
Oh oh oh oh oh oh
G#m            A                B
Oh when did I start tearin' us apart?
                  C#m-B
I'm tearin' us apart

Bridge:
A                              G#m
At this time in my life I have made up my mind
C#m                  B
Everyone thinks that I'm crazy
      A                      G#m
But I cannot deny all these feelings inside
C#m                        B
All I can say is that I'm sorry
        A
I'm so sorry

Interlude: C#m---

e-------------------------------------I
b-----55-----55-----55----55----------I
g-----66-----66-----66----66----------I
d--66-----66-----66-----66------------I
a--44-----44-----44-----44------------I
E-------------------------------------I

C#m                 B         E
I just got off the phone with you
I didn't even cry
C#m                B      E
I just did what I had to do
I had to say goodbye

Chorus:
A           B         C#m
I wish that you could understand the way
A       B        C#m 
I felt when she looked at me today
A     B        E
Oh oh oh oh oh oh
G#m            A                B
Oh when did I start tearin' us apart?
                  A-B
I'm tearin' us apart
C#m              A-B
Understand the way
C#m
Looked at me today
A     B         E
Oh oh oh oh oh oh
G#m             A               B
Oh when did I start tearin' us apart?
                  C#m
I'm tearin' us apart
E----B-C#m
Oh oh oh oh

e-----------------------------------------I
b-----------------------------------------I
g-----------------------------------------I
d--66x-66x-66x-99x-99x-99x-9-9-9-9-4-66---I
a--44x-44x-44x-77x-77x-77x-7-7-7-7-2-44---I
E-----------------------------------------I

e--------------------I
b---4-55-97-97-45----I
g--6-----------------I
d--------------------I
a--------------------I
E--------------------I
[fin]
Tap to rate this tab
 
# A B C D E F G H I J K L M N O P Q R S T U V W X Y Z