Song name
# A B C D E F G H I J K L M N O P Q R S T U V W X Y Z

Plain White Ts - Unconditional Love tab

-------------------------------------------------------------------------------
			     Unconditional Love - Plain White Ts
-------------------------------------------------------------------------------
Tabbed by: BiriBoy
Email:

This is my first tab :) 

Tuning: standard

intro:

    D     G    EM     A  
e|-------------------------| x10
B|-3-3---------------2-2---|
G|-2-2---------------2-2---|
D|-0-0---5-5---2-2---2-2---|
A|-------5-5---2-2---0-0---|
E|-------3-3---0-0---------|

Chorus:

to speak to me..
   D   A   G   A 
e|----------------------|
B|-3---2-------2--------|
G|-2---2-------2--------|
D|-0---2---5---2--------|
A|-----0---5---0--------|
E|---------3------------|

Bridge:

e|--------------------------| x2
B|--------------------------|
G|---7-----11-11--14--------|
D|---x-x12--x--x---x--------|
A|---5------9--9--11--------|
E|--------------------------|

solo:
e|------------------------------------------------------------------------|
B|------------------------------------------------------------------------|
G|-------------7~----11b12r11--9--7-------------7-6-----------------------|
D|---------7h9-----------------------10-9-7-5-------7--5-4-2-2-4-5/7-5-4--|
A|--7-8-9-----------------------------------------------------------------|
E|------------------------------------------------------------------------|
    * * *  
e|---------------------------------------------------------------------------|
B|---------------------------------------------------------------------------|
G|---------------------------------------------------------------------------|
D|-777777-99999---7-7-7-7--5-5-5-5-------------------------------------------|
A|---------------------------------------------------------------------------|
E|---------------------------------------------------------------------------|
   ****** *****       (i'm not sure about this part..)

end with
     D
e|------------------|
B|--3-3-------------|
G|--2-2-------------|
D|--0-0-------------|
A|------------------|
E|------------------|


| /  slide up
| \  slide down
| h  hammer-on
| p  pull-off
| ~  vibrato
| +  harmonic
| *  Mute note
===============================================================================
Tap to rate this tab
# A B C D E F G H I J K L M N O P Q R S T U V W X Y Z