Song name
# A B C D E F G H I J K L M N O P Q R S T U V W X Y Z

Plain White Ts - Hey There Delilah tab

A lot of people don't play it this way.. Most people only do the power chords. But 
here's the way I play it.
Hope you like it!

Sorry if anything is incorrect; I don't read tablature and this is my first time writing in it.
I just did this for fun.

Intro
e---2---2---2---2---2---2---2---2---2---2---2---2---2---2---2---2-|
B---3---3---3---3---2---2---2---2---3---3---3---3---2---2---2---2-|
G---2---2---2---2---2---2---2---2---2---2---2---2---2---2---2---2-|
D-0---0---0---0---4---4---4---4---0---0---0---0---4---4---4---4---|
A-----------------------------------------------------------------|
E-----------------------------------------------------------------|

Verse 1
e---2---2---2---2---2---2---2---2---2---2---2---2---2---2---2---2-|
B---3---3---3---3---2---2---2---2---3---3---3---3---2---2---2---2-|
G---2---2---2---2---2---2---2---2---2---2---2---2---2---2---2---2-|
D-0---0---0---0---4---4---4---4---0---0---0---0---4---4---4---4---|
A-----------------------------------------------------------------|
E-----------------------------------------------------------------|

e-----------------------------------------------------------------|
B---3---3---3-------0---0---2---2---3---3---3---3---2---2---2---2-|
G---4---4---4-------0---0---2---2---4---4---4---4---2---2---2---2-|
D---4---4---4-------0---0---2---2---4---4---4---4---2---2---2---2-|
A-2---2---2---0-----------0---0---2---2---2---2---0---0---0---0---|
E-----------------3---3-------------------------------------------|

e---2---2---2---2---2---2---2---2---2---2---2---2---2---2---2---2-|
B---3---3---3---3---2---2---2---2---3---3---3---3---2---2---2---2-|
G---2---2---2---2---2---2---2---2---2---2---2---2---2---2---2---2-|
D-0---0---0---0---4---4---4---4---0---0---0---0---4---4---4---4---|
A-----------------------------------------------------------------|
E-----------------------------------------------------------------|

e-----------------------------------------------------------------|
B---3---3---3-------0---0---2---2---3---3---3---3---2---2---2---2-|
G---4---4---4-------0---0---2---2---4---4---4---4---2---2---2---2-|
D---4---4---4-------0---0---2---2---4---4---4---4---2---2---2---2-|
A-2---2---2---0-----------0---0---2---2---2---2---0---0---0---0---|
E-----------------3---3-------------------------------------------|

Chorus
e---2---2---2-----------------------2---2---2---------------------|
B---3---3---3-------3---3---3---3---3---3---3-------3---3---3---3-|
G---2---2---2-------4---4---4---4---2---2---2-------4---4---4---4-|
D-0---0---0---------4---4---4---4-0---0---0---------4---4---4---4-|
A-------------0---2---2---2---2---------------0---2---2---2---2---|
E-----------------------------------------------------------------|

e---2---2---2-----------------------2---2---2---------------------|
B---3---3---3-------3---3---3---3---3---3---3-------3---3---3---3-|
G---2---2---2-------4---4---4---4---2---2---2-------4---4---4---4-|
D-0---0---0---------4---4---4---4-0---0---0---------4---4---4---4-|
A-------------0---2---2---2---2---------------0---2---2---2---2---|
E-----------------------------------------------------------------|

e---2---2---2---2-|
B---3---3---3---3-|
G---2---2---2---2-|
D-0---0---0---0---|
A-----------------|
E-----------------|

Verse 2
e---2---2---2---2---2---2---2---2---2---2---2---2---2---2---2---2-|
B---3---3---3---3---2---2---2---2---3---3---3---3---2---2---2---2-|
G---2---2---2---2---2---2---2---2---2---2---2---2---2---2---2---2-|
D-0---0---0---0---4---4---4---4---0---0---0---0---4---4---4---4---|
A-----------------------------------------------------------------|
E-----------------------------------------------------------------|

e-----------------------------------------------------------------|
B---3---3---3-------0---0---2---2---3---3---3---3---2---2---2---2-|
G---4---4---4-------0---0---2---2---4---4---4---4---2---2---2---2-|
D---4---4---4-------0---0---2---2---4---4---4---4---2---2---2---2-|
A-2---2---2---0-----------0---0---2---2---2---2---0---0---0---0---|
E-----------------3---3-------------------------------------------|

e---2---2---2---2---2---2---2---2---2---2---2---2---2---2---2---2-|
B---3---3---3---3---2---2---2---2---3---3---3---3---2---2---2---2-|
G---2---2---2---2---2---2---2---2---2---2---2---2---2---2---2---2-|
D-0---0---0---0---4---4---4---4---0---0---0---0---4---4---4---4---|
A-----------------------------------------------------------------|
E-----------------------------------------------------------------|

e-----------------------------------------------------------------|
B---3---3---3-------0---0---2---2---3---3---3---3---2---2---2---2-|
G---4---4---4-------0---0---2---2---4---4---4---4---2---2---2---2-|
D---4---4---4-------0---0---2---2---4---4---4---4---2---2---2---2-|
A-2---2---2---0-----------0---0---2---2---2---2---0---0---0---0---|
E-----------------3---3-------------------------------------------|

Chorus
e---2---2---2-----------------------2---2---2---2-----------------|
B---3---3---3-------3---3---3---3---3---3---3---3---3---3---3---3-|
G---2---2---2-------4---4---4---4---2---2---2---2---4---4---4---4-|
D-0---0---0---------4---4---4---4-0---0---0---0-----4---4---4---4-|
A-------------0---2---2---2---2-------------------2---2---2---2---|
E-----------------------------------------------------------------|

e---2---2---2-----------------------2---2---2---------------------|
B---3---3---3-------3---3---3---3---3---3---3-------3---3---3---3-|
G---2---2---2-------4---4---4---4---2---2---2-------4---4---4---4-|
D-0---0---0---------4---4---4---4-0---0---0---------4---4---4---4-|
A-------------0---2---2---2---2---------------0---2---2---2---2---|
E-----------------------------------------------------------------|

Bridge
e-----------------------------------2---2---2---2----------------|
B---0---0---0---0---2---2---2---2---3---3---3---3---3---3---3---3|
G---0---0---0---0---2---2---2---2---2---2---2---2---4---4---4---4|
D---0---0---0---0---2---2---2---2-0---0---0---0-----4---4---4---4|
A-----------------0---0---0---0-------------------2---2---2---2--|
E-3---3---3---3--------------------------------------------------|

e-----------------------------------2---2---2---2-----------------|
B---0---0---0---0---2---2---2---2---3---3---3---3---3---3---3---3-|
G---0---0---0---0---2---2---2---2---2---2---2---2---4---4---4---4-|
D---0---0---0---0---2---2---2---2-0---0---0---0-----4---4---4---4-|
A-----------------0---0---0---0-------------------2---2---2---2---|
E-3---3---3---3---------------------------------------------------|

e-----------------------------------------------------------------|
B---0---0---0---0---2---2---2---2---3---3---3---3---3---3---3---3-|
G---0---0---0---0---2---2---2---2---4---4---4---4---4---4---4---4-|
D---0---0---0---0---2---2---2---2---4---4---4---4---4---4---4---4-|
A-----------------0---0---0---0---2---2---2---2---2---2---2---2---|
E-3---3---3---3---------------------------------------------------|

e---------------------------------|
B---2---2---2---2---5---5---5---5-|
G---2---2---2---2---2---2---2---2-|
D---2---2---2---2-----------------|
A-0---0---0---0---0---0---0---0---|
E---------------------------------|

Verse 3
e---2---2---2---2---2---2---2---2---2---2---2---2---2---2---2---2-|
B---3---3---3---3---2---2---2---2---3---3---3---3---2---2---2---2-|
G---2---2---2---2---2---2---2---2---2---2---2---2---2---2---2---2-|
D-0---0---0---0---4---4---4---4---0---0---0---0---4---4---4---4---|
A-----------------------------------------------------------------|
E-----------------------------------------------------------------|

e-----------------------------------------------------------------|
B---3---3---3-------0---0---2---2---3---3---3---3---2---2---2---2-|
G---4---4---4-------0---0---2---2---4---4---4---4---2---2---2---2-|
D---4---4---4-------0---0---2---2---4---4---4---4---2---2---2---2-|
A-2---2---2---0-----------0---0---2---2---2---2---0---0---0---0---|
E-----------------3---3-------------------------------------------|

e---2---2---2---2---2---2---2---2---2---2---2---2---2---2---2---2-|
B---3---3---3---3---2---2---2---2---3---3---3---3---2---2---2---2-|
G---2---2---2---2---2---2---2---2---2---2---2---2---2---2---2---2-|
D-0---0---0---0---4---4---4---4---0---0---0---0---4---4---4---4---|
A-----------------------------------------------------------------|
E-----------------------------------------------------------------|

e-----------------------------------------------------------------|
B---3---3---3-------0---0---2---2---3---3---3---3---0---0---2---2-|
G---4---4---4-------0---0---2---2---4---4---4---4---0---0---2---2-|
D---4---4---4-------0---0---2---2---4---4---4---4---0---0---2---2-|
A-2---2---2---0-----------0---0---2---2---2---2-----------0---0---|
E-----------------3---3---------------------------3---3-----------|

e-----------------------------------------------------------------|
B---3---3---3---3---0---0---2---2---3---3---3---3---2---2---2---2-|
G---4---4---4---4---0---0---2---2---4---4---4---4---2---2---2---2-|
D---4---4---4---4---0---0---2---2---4---4---4---4---2---2---2---2-|
A-2---2---2---2-----------0---0---2---2---2---2---0---0---0---0---|
E-----------------3---3-------------------------------------------|

e-----------------|
B---5---5---5---5-|
G---2---2---2---2-|
D---2---2---2---2-|
A-0---0---0---0---|
E-----------------|

Chorus
e---2---2---2-----------------------2---2---2---------------------|
B---3---3---3-------3---3---3---3---3---3---3-------3---3---3---3-|
G---2---2---2-------4---4---4---4---2---2---2-------4---4---4---4-|
D-0---0---0---------4---4---4---4-0---0---0---------4---4---4---4-|
A-------------0---2---2---2---2---------------0---2---2---2---2---|
E-----------------------------------------------------------------|

e---2---2---2-----------------------2---2---2---------------------|
B---3---3---3-------3---3---3---3---3---3---3-------3---3---3---3-|
G---2---2---2-------4---4---4---4---2---2---2-------4---4---4---4-|
D-0---0---0---------4---4---4---4-0---0---0---------4---4---4---4-|
A-------------0---2---2---2---2---------------0---2---2---2---2---|
E-----------------------------------------------------------------|

e---2---2---2-----------------------2---2---2---------------------|
B---3---3---3-------3---3---3---3---3---3---3-------3---3---3---3-|
G---2---2---2-------4---4---4---4---2---2---2-------4---4---4---4-|
D-0---0---0---------4---4---4---4-0---0---0---------4---4---4---4-|
A-------------0---2---2---2---2---------------0---2---2---2---2---|
E-----------------------------------------------------------------|

e---2---2---2-----------------------2---2---2---------------------|
B---3---3---3-------3---3---3---3---3---3---3-------3---3---3---3-|
G---2---2---2-------4---4---4---4---2---2---2-------4---4---4---4-|
D-0---0---0---------4---4---4---4-0---0---0---------4---4---4---4-|
A-------------0---2---2---2---2---------------0---2---2---2---2---|
E-----------------------------------------------------------------|

Ending
e---2---2---2---2-2-|
B---3---3---3---3-3-|
G---2---2---2---2-2-|
D-0---0---0-------0-|
A-------------0-----|
E-------------------|
Tap to rate this tab
 
# A B C D E F G H I J K L M N O P Q R S T U V W X Y Z