Song name
# A B C D E F G H I J K L M N O P Q R S T U V W X Y Z

Plain White Ts - Airplane tab

     Airplane By the plane white ts yay. O.o 
e|-----------|---------|---------|---------|---------|---------|---------|
B|-----------|---------|---------|---------|---------|---------|---------|
G|---3----3--|-2----2--|-3----3--|-5----5--|-7----7--|-5----5--|-7----7--|
D|------0-0--|----0----|----0----|-0--0-0--|-0--0----|----0-0--|-0--0----|
A|-----------|---------|---------|---------|---------|---------|---------|
E|---3-3-3-3-|-2-2-2-2-|-3-3-3-3-|-5-5-5-5-|-6-6-6-6-|-5-5-5-5-|-6-6-6-6-|
  
     
e|-----------|---------|---------|---------|---------|---------|---------|
B|-----------|-4----4--|-3----3--|-4----4--|-3----3--|-3----3--|-1-------|
G|---7----7--|----0-0--|----0-0--|-0--0-0--|-0--0-0--|----2-2--|----3--2-|
D|------0-0--|---------|---------|---------|---------|---------|---------|
A|-----------|-3-3-3-3-|-3-3-3-3-|-3-3-3-3-|-3-3-3---|---------|---------|
E|---7-7-7-7-|---------|---------|---------|---------|-2-2-2-2-|-3-3-3---|

    
e|-----------|---------|
B|---2----2--|-1----1--|
G|------0-0--|----2----|
D|-----------|-0-0-0-0-|
A|---0-0-0-0-|---------|
E|-----------|---------|



Chorus A:

     
e|-----------|---------|---------|---------|---------|---------|---------|
B|---4----4--|-3----3--|-4----4--|-3----3--|-3----3--|-1----1--|-2----2--|
G|------0----|----0----|----0-0--|----0----|----0----|----0----|----0-0--|
D|-----------|---------|---------|---------|---------|---------|---------|
A|---3-3-3-3-|-2-2-2-2-|-3-3-3-3-|-2-2-2-2-|-1-1-1-1-|-0-0-0-0-|-1-1-1-1-|
E|-----------|---------|---------|---------|---------|---------|---------|

     
e|-----------|
B|---3----3--|
G|------2----|
D|---0-0-0-0-|
A|-----------|
E|-----------|



Chorus B:

e|-----------|---------|---------|---------|---------|---------|---------|
B|---4----4--|-3----3--|-4----4--|-3----3--|-3----3--|-1----1--|-2/-5/-8-|
G|--------0--|----0-0--|-0--0-0--|----0-0--|-0--0----|----0----|---------|
D|-----------|---------|---------|---------|---------|---------|---------|
A|---3-3-3-3-|-2-2-2-2-|-3-3-3-3-|-2-2-2-2-|-1-1-1-1-|-0-0-0-0-|-1/-4/-7-|
E|-----------|---------|---------|---------|---------|---------|---------|

               D7
e|-----------|-2/-5/-8-|---------|------8--|------8--|---------|
B|-----------|-3/-7/-10|---------|---10--10|---10--10|---------|
G|-----------|-2/-7/-11|---------|---------|---------|---------|
D|-----------|-0--0--0-|---------|-0-------|-0-------|---------|
A|-----------|---------|---------|---------|---------|---------|
E|-----------|---------|---------|---------|---------|---------|



Ending Verse:

         
e|-----------|---------|---------|---------|---------|---------|---------|
B|-----------|---------|---------|---------|---------|---------|---------|
G|---3----3--|-2----2--|-3----3--|-5----5--|-7----7--|-5----5--|-7----7--|
D|---0--0-0--|----0----|----0----|----0-0--|-0--0----|-0--0-0--|-0--0----|
A|-----------|---------|---------|---------|---------|---------|---------|
E|---3-3-3-3-|-2-2-2-2-|-3-3-3-3-|-5-5-5-5-|-6-6-6-6-|-5-5-5-5-|-6-6-6-6-|
  
    
e|-----------|---------|---------|---------|---------|---------|---------|
B|-----------|-4----4--|-3----3--|-4----4--|-3----3--|-3----3--|-1-------|
G|---7----7--|----0-0--|----0-0--|-0--0-0--|-0--0-0--|----2-2--|----3-2--|
D|------0-0--|---------|---------|---------|---------|---------|---------|
A|-----------|-3-3-3-3-|-3-3-3-3-|-3-3-3-3-|-3-3-3---|---------|---------|
E|---7-7-7-7-|---------|---------|---------|---------|-2-2-2-2-|-3-3-3---|

     
e|-----------|---------|---------|-3-------|---------|
B|---2----2--|-------1-|---------|-3-------|---------|
G|------0-0--|-----2---|---------|-3-------|---------|
D|-----------|-0--0----|-0-------|-5-------|---------|
A|---0-0-0-0-|---------|---------|-5-------|---------|
E|-----------|---------|---------|-3-------|---------|

So.. thats all folks.. O.o
Tap to rate this tab
 
# A B C D E F G H I J K L M N O P Q R S T U V W X Y Z