Song name
# A B C D E F G H I J K L M N O P Q R S T U V W X Y Z

Plain White Ts - Boomerang chords

Highlighted       Show chord diagrams
Intro:
B       E      B      E
Verse: 
B       E      
B       E
B       E      
B       E
Bbm     F#     
Bbm     F#
E       F#

Chorus:
B       F#     Bbm    E
B       F#     Bbm    E
B       F#     Bbm    E

|------------------------------------------------------------------|
|-4-4------4--------------4----------------------------------------|
|-----4------6-4--6-6-------6-4---4--------------------------------|
|--------4------------4---------4----------------------------------|
|------------------------------------------------------------------|
|------------------------------------------------------------------|

Verse 2:
B       E
B       E
B       E
B       E
Bbm     F#
Bbm     F#
E       F#

Chorus:
B       F#     Bbm    E
B       F#     Bbm    E
B       F#     Bbm    E
B       F#     Bbm    E

Bridge:
Bbm     E
Bbm     E
Bbm     E
F#

Chorus:
B       F#     Bbm    E
B       F#     Bbm    E
B       F#     Bbm    E
B       F#     Bbm    E

|------------------------------------------------------------------|
|-4-4------4--------------4----------------------------------------|
|-----4------6-4--6-6-------6-4---4--------------------------------|
|--------4------------4---------4----------------------------------|
|------------------------------------------------------------------|
|------------------------------------------------------------------|
Tap to rate this tab
# A B C D E F G H I J K L M N O P Q R S T U V W X Y Z