Song name
# A B C D E F G H I J K L M N O P Q R S T U V W X Y Z

Plain White Ts - The Giving Tree tab

The Giving Tree | Plain White T's
Should've Gone to Bed EP

Tab by: Megan Chang

Intro
Capo 1st Fret


E|----------3-----------3----------3-----------2------------3-----------3----------3-----------2--|
B|-------0-----------0----------0-----------0------------0-----------0----------0-----------0-----|
G|--------------------------------------------------0-------------0--------0-------------0--------|
D|--2-------------2--------2-------------2---------------------0----------------------0-----------|
A|-------------2----------------------2-----------------------------------------------------------|
E|------------------------------------------------------------------------------------------------|



E|----------5-----------5----------5--------0--3------------3-----------2----------2-----------2--|
B|-------5-----------5----------5------------------------0-----------0----------------------------|
G|--2-------------2--------2-------------2----------0-------------0-------------2-----------2-----|
D|-------------2----------------------2------------------------0-----------4----------0--4--------|
A|------------------------------------------------------------------------------------------------|
E|------------------------------------------------------------------------------------------------|
Tap to rate this tab
# A B C D E F G H I J K L M N O P Q R S T U V W X Y Z