Song name
# A B C D E F G H I J K L M N O P Q R S T U V W X Y Z

Plain White Ts - If I Told You tab

I'm pretty sure it's all right, this is my first tab so if you find something
 wrong please email me.


e|----------------------------------------------|---------|
B|----------------------------------------------|---------|
G|11-9-----------9---------------9----9--8-8-6--|---------|
D|----11-11-9-11--11-9-11-11-9-11-11-9--------6-|---------|
A|----------------------------------------------|---------|
E|----------------------------------------------|---------|

e|--------------------------------------------------------|
B|--------------------------------------------------------|
G|11-9-----------9---------------9----9--8-8-6---9-8-6-8--|
D|----11-11-9-11--11-9-11-11-9-11-11-9--------6-9-------9-|
A|--------------------------------------------------------|
E|--------------------------------------------------------|
Tap to rate this tab
# A B C D E F G H I J K L M N O P Q R S T U V W X Y Z