Song name
# A B C D E F G H I J K L M N O P Q R S T U V W X Y Z

Plain White Ts - Hatei Really Dont Like You tab

-------------------------------------------------------------------------------
			     Hate(I Really Don't Like You) - Plain White T's
-------------------------------------------------------------------------------
Tabbed by:rcory120
Tuning:standard
Listen to the song for strumming

Intro              repeat this x2
e|---|-----------------------------------------------------------------------|
B|---|-----------------------4-7-4---4-5-4-2---------------------------------|
G|---|-------------------6-4-------4-----------------------------------------|
D|6--|------6--------4-7-----------------------------------------------------|
A|6--|--4-7---7-4-7----------------------------------------------------------|
E|4--|-----------------------------------------------------------------------|
Verse
this is either just the bass or the guitar is played rly quietly under the lyrics
muted:
e|---------------------------------------------------------------------------|
B|---------------------------------------------------------------------------|
G|6----------4---------------------------------------------------------------|
D|6----4-----4----2----------------------------------------------------------|
A|4----4-----2----2----------------------------------------------------------|
E|-----2----------0----------------------------------------------------------|
Pre-Chorus
e|---------------------------------------------------------------------------|
B|---------------------------------------------------------------------------|
G|---------------------------------------------------------------------------|
D|7-7-7-7-7-7-7-7-6----------------------------------------------------------|
A|7-7-7-7-7-7-7-7-6----------------------------------------------------------|
E|5-5-5-5-5-5-5-5-4----------------------------------------------------------|

The chorus is exactly like the verse just unmuted
e|---------------------------------------------------------------------------|
B|---------------------------------------------------------------------------|
G|6----------4---------------------------------------------------------------|
D|6----4-----4----2----------------------------------------------------------|
A|4----4-----2----2----------------------------------------------------------|
E|-----2----------0----------------------------------------------------------|

Bridge: x2 the second time is muted
e|---------------------------------------------------------------------------|
B|---------------------------------------------------------------------------|
G|---------------------------------------------------------------------------|
D|4----6---------------------------------------------------------------------|
A|4----6---------------------------------------------------------------------|
E|2----4---------------------------------------------------------------------|

Ok now heres the order it goes in
Intro
Verse
Prechorus
Chorus
Intro-minus the power chord
Verse
Pre-Chorus
Chorus
Bridge
Intro x2 so play the riff 4 times
Pre-Chorus
Chorus
Intro x3 so the riff is 6 times
Tap to rate this tab
 
# A B C D E F G H I J K L M N O P Q R S T U V W X Y Z