Song name
# A B C D E F G H I J K L M N O P Q R S T U V W X Y Z

Plain White Ts - Hate I Really Dont Like You tab

-------------------------------------------------------------------------------
			Hate(I Really Don't Like You)-Plain White T's
-------------------------------------------------------------------------------
Tabbed by:Bill-A
Email:ghostrunneronthirdd@yahoo.com

Tuning:Standard

e|-----------------------------------------------------------------------------------|
B|--------------------------------------4-7-4-5-4-2----------------------------------|
G|-------------------------------4-6-------------------------------------------------|
D|-----------6-----------4-7---------------------------------------------------------|
A|------4--7-----7-4-7---------------------------------------------------------------|
E|-----------------------------------------------------------------------------------|
Ill tab the rest laterr


| /  slide up
| \  slide down
| h  hammer-on
| p  pull-off
| ~  vibrato
| +  harmonic
| x  Mute note
===============================================================================
Tap to rate this tab
 
# A B C D E F G H I J K L M N O P Q R S T U V W X Y Z