Song name
# A B C D E F G H I J K L M N O P Q R S T U V W X Y Z

Plain White Ts - So Damn Clever tab

SONG TITLE: So Damn Clever
SONG ARTIST: Plain White T's
SONG TUNING: Standard

TABBER: Sean Pollard (AKA Racing_Master)
EMAIL: racingmaster@gmail.com

TABBER'S COMMENTS:  I saw no real good tab for this song, so here is my first tab, ear 
I think it is close!  Don't be too hard on my formatting, it IS my first tab!  Enjoy!

KEY:
PM ... Palm Mute
/ Slide up
\ Slide Down
~ Let Ring

||---||
||---||
||.-.||
||.-.||   Repeat
||---||
||---||
-------------------------------------------------------------------------------

Drum Intro


Intro                  x3
||---------------------||--------------------||
||---------------------||--------------------||
||.-9/11-9\7-7--4--9--.||-9/11-9\7-7~~~~-----||
||.-x/x--x\x-x--x--x--.||-x/x--x\x-x~~~~-----||
||--7/9--7\5-5--2--7---||-7/9--7\5-5~~~~-----||
||---------------------||--------------------||

Verse
||------------------|-----------------|-----------------|------------------||
||------------------|-----------------|-----------------|------------------||
||.-4-4-4-4-4-4-4-4-|-----------------|-----------------|-2-2-2-2-2-2-2-2-.||
||.-4-4-4-4-4-4-4-4-|-5-5-5-5-5-5-5-5-|-4-4-4-4-4-4-4-4-|-2-2-2-2-2-2-2-2-.||
||--2-2-2-2-2-2-2-2-|-5-5-5-5-5-5-5-5-|-4-4-4-4-4-4-4-4-|-0-0-0-0-0-0-0-0--||
||------------------|-3-3-3-3-3-3-3-3-|-2-2-2-2-2-2-2-2-|------------------||

Pre-Chorus
||-----0~--------|------------------||
||-----0~--------|------------------||
||-----0~--------|-2-2-2-2-2--------||
||-2~------------|-2-2-2-2-2--------||
||-2~------------|-0-0-0-0-0--------||
||-0~------------|------------------||

Chorus
||----------------|----------------|----------------|-----0~--------||
||----------------|----------------|----------------|-----0~--------||
||-4~-4--2~-2-2-2-|----------------|-4~-4--2~-2-2-2-|-----0~--------||
||-4~-4--2~-2-2-2-|-5~-5--4~-4-4-4-|-4~-4--2~-2-2-2-|-2~------------||
||-2~-2--0~-0-0-0-|-5~-5--4~-4-4-4-|-2~-2--0~-0-0-0-|-2~------------||
||----------------|-3~-3--2~-2-2-2-|----------------|-0~------------||

||----------------|----------------|-----------------|------------------||
||----------------|----------------|-----------------|------------------||
||-4~-4--2~-2-2-2-|-7~-7-----------|-----------------|---------2--------||
||-4~-4--2~-2-2-2-|-7~-7--2~-2-2-2-|-5-5-5-5-5-5-5-5-|-2-2-2-2-2--------||
||-2~-2--0~-0-0-0-|-5~-5--2~-2-2-2-|-5-5-5-5-5-5-5-5-|-2-2-2-2-0--------||
||----------------|-------0~-0-0-0-|-3-3-3-3-3-3-3-3-|-0-0-0-0----------||

Pre-Verse              3x
||---------------------||--------------------||
||---------------------||--------------------||
||.-9/11-9\7-7--4--9--.||-9/11-9\7-7~~~~-----||
||.-x/x--x\x-x--x--x--.||-x/x--x\x-x~~~~-----||
||--7/9--7\5-5--2--7---||-7/9--7\5-5~~~~-----||
||---------------------||--------------------||

Verse #2
||------------------|-----------------|-----------------|------------------||
||------------------|-----------------|-----------------|------------------||
||.-4-4-4-4-4-4-4-4-|-----------------|-----------------|-2-2-2-2-2-2-2-2-.||
||.-4-4-4-4-4-4-4-4-|-5-5-5-5-5-5-5-5-|-4-4-4-4-4-4-4-4-|-2-2-2-2-2-2-2-2-.||
||--2-2-2-2-2-2-2-2-|-5-5-5-5-5-5-5-5-|-4-4-4-4-4-4-4-4-|-0-0-0-0-0-0-0-0--||
||------------------|-3-3-3-3-3-3-3-3-|-2-2-2-2-2-2-2-2-|------------------||

Pre-Chorus #2
||-----0~--------|-----------------|-----------------|-------------------||
||-----0~--------|-----------------|-----------------|-------------------||
||-----0~--------|-2-2-2-2-2-2-2-2-|-----------------|-2-2-2-2-2---------||
||-2~------------|-2-2-2-2-2-2-2-2-|-2-2-2-2-2-2-2-2-|-2-2-2-2-2---------||
||-2~------------|-0-0-0-0-0-0-0-0-|-2-2-2-2-2-2-2-2-|-0-0-0-0-0---------||
||-0~------------|-----------------|-0-0-0-0-0-0-0-0-|-------------------||
PM                                  .............................

Chorus #2
||----------------|----------------|----------------|-----0~--------||
||----------------|----------------|----------------|-----0~--------||
||-4~-4--2~-2-2-2-|----------------|-4~-4--2~-2-2-2-|-----0~--------||
||-4~-4--2~-2-2-2-|-5~-5--4~-4-4-4-|-4~-4--2~-2-2-2-|-2~------------||
||-2~-2--0~-0-0-0-|-5~-5--4~-4-4-4-|-2~-2--0~-0-0-0-|-2~------------||
||----------------|-3~-3--2~-2-2-2-|----------------|-0~------------||

||----------------|----------------|-----------------|-----------------||
||----------------|----------------|-----------------|-----------------||
||-4~-4--2~-2-2-2-|-7~-7-----------|-----------------|---------2-2-2-2-||
||-4~-4--2~-2-2-2-|-7~-7--2~-2-2-2-|-5-5-5-5-5-5-5-5-|-2-2-2-2-2-2-2-2-||
||-2~-2--0~-0-0-0-|-5~-5--2~-2-2-2-|-5-5-5-5-5-5-5-5-|-2-2-2-2-0-0-0-0-||
||----------------|-------0~-0-0-0-|-3-3-3-3-3-3-3-3-|-0-0-0-0---------||

Bridge (I am unsure about this part, Got a correction? E-Mail me!)

||-------------------||-----------------|-----------------|-----------------|--------||
||-------------------||-----------------|-----------------|-----------------|--------||
||.-----------------.||---------2-2-2-2-|-5-5-5-5-7-7-7-7-|-7-7-2-2-2-2-2-2-|-2-2----||
||.-8-5-0-5~--3-5-2-.||-5-5-5-5-2-2-2-2-|-5-5-5-5-7-7-7-7-|-7-7-2-2-2-2-2-2-|-2-2----||
||-------------------||-5-5-5-5-0-0-0-0-|-3-3-3-3-5-5-5-5-|-5-5-0-0-0-0-0-0-|-0-0----||
||-------------------||-3-3-3-3---------|-----------------|-----------------|--------||

Chorus #3
||----------------|----------------|----------------|-----0~--------||
||----------------|----------------|----------------|-----0~--------||
||-4~-4--2~-2-2-2-|----------------|-4~-4--2~-2-2-2-|-----0~--------||
||-4~-4--2~-2-2-2-|-5~-5--4~-4-4-4-|-4~-4--2~-2-2-2-|-2~------------||
||-2~-2--0~-0-0-0-|-5~-5--4~-4-4-4-|-2~-2--0~-0-0-0-|-2~------------||
||----------------|-3~-3--2~-2-2-2-|----------------|-0~------------||

||----------------|----------------|-----------------|-----------------||
||----------------|----------------|-----------------|-----------------||
||-4~-4--2~-2-2-2-|-7~-7-----------|-----------------|---------2-2-2-2-||
||-4~-4--2~-2-2-2-|-7~-7--2~-2-2-2-|-5-5-5-5-5-5-5-5-|-2-2-2-2-2-2-2-2-||
||-2~-2--0~-0-0-0-|-5~-5--2~-2-2-2-|-5-5-5-5-5-5-5-5-|-2-2-2-2-0-0-0-0-||
||----------------|-------0~-0-0-0-|-3-3-3-3-3-3-3-3-|-0-0-0-0---------||

Outro
||-------------------|------------------||--------------------||
||-------------------|------------------||--------------------||
||.-9/11-9\7-7--4--9-|-9/11-9\7-7~~~~--.||.-9/11-9\7-7--4--9-.||
||.-x/x--x\x-x--x--x-|-x/x--x\x-x~~~~--.||.-x/x--x\x-x--x--x-.||
||--7/9--7\5-5--2--7-|-7/9--7\5-5~~~~---||--7/9--7\5-5--2--7--||
||-------------------|------------------||--------------------||

||-----------------|------------------||
||-----------------|------------------||
||-----------------|---------2--------||
||-5-5-5-5-5-5-5-5-|-2-2-2-2-2--------||
||-5-5-5-5-5-5-5-5-|-2-2-2-2-0--------||
||-3-3-3-3-3-3-3-3-|-0-0-0-0----------||
Tap to rate this tab
# A B C D E F G H I J K L M N O P Q R S T U V W X Y Z