Song name
# A B C D E F G H I J K L M N O P Q R S T U V W X Y Z

Plain White Ts - Our Time Now tab

  Song: Our Time Now
Artist: Plain White T's

Tabber: Jeff Brower



It should be 100% right, I played the song at half speed for it. The only
weird thing is the timing. Lots of notes are held through multiple measures.
The tab reference and full lyrics are at the bottom.



Tuning: Standard



INTRO

    H       E E E E   Q   Q   E E E Q     E Q   E E Q
E-|---------X-X-X-X-|-----------------|-----------------|
B-|---------X-X-X-X-|-----------------|-----------------|
G-|---------X-X-X-X-|-5---5---5-5-5-5-|-+-5-5---5-5-5---|
D-|---------X-X-X-X-|-5---5---5-5-5-5-|-+-5-5---5-5-5---|
A-|---------X-X-X-X-|-3---3---3-3-3-3-|-+-3-3---3-3-3---|
E-|---------X-X-X-X-|-----------------|-----------------|
    Oh  Oh  Oh

    Q   Q   E E E Q     E Q   E E Q
E-|-----------------|-----------------|
B-|-----------------|-----------------|
G-|-----------------|-----------------|
D-|-3---3---3-3-3-3-|-+-3-3---3-3-3---|
A-|-3---3---3-3-3-3-|-+-3-3---3-3-3---|
E-|-1---1---1-1-1-1-|-+-1-1---1-1-1---|

    Q   Q   E E E Q     E Q   E E Q
E-|-----------------|-----------------|
B-|-----------------|-----------------|
G-|-----------------|-----------------|
D-|-7---7---7-7-7-2-|-+-2-2---2-2-2---|
A-|-7---7---7-7-7-2-|-+-2-2---2-2-2---|
E-|-5---5---5-5-5-0-|-+-0-0---0-0-0---|

    Q   Q   E E E Q     E Q   E E E E
E-|-----------------|-----------------|
B-|-----------------|-----------------|
G-|-----------------|-----------------|
D-|-3---3---3-3-3-5-|-+-5-5---5-5-5-5-|
A-|-3---3---3-3-3-5-|-+-5-5---5-5-5-5-|
E-|-1---1---1-1-1-3-|-+-3-3---3-3-3-3-|



VERSE 1

    W
E-|-----------------|
B-|-----------------| x 15
G-|-----------------|
D-|-----------------|
A-|-----------------| x 15
E-|-----------------|



CHORUS

    H       E E E E   Q   Q   E E E Q     E Q   E E Q
E-|---------X-X-X-X-|-----------------|-----------------|
B-|---------X-X-X-X-|-----------------|-----------------|
G-|---------X-X-X-X-|-5---5---5-5-5-5-|-+-5-5---5-5-5---|
D-|---------X-X-X-X-|-5---5---5-5-5-5-|-+-5-5---5-5-5---|
A-|---------X-X-X-X-|-3---3---3-3-3-3-|-+-3-3---3-3-3---|
E-|---------X-X-X-X-|-----------------|-----------------|
    Oh  oh            This is the...    the lovers,

    Q   Q   E E E Q     E Q   E E Q
E-|-----------------|-----------------|
B-|-----------------|-----------------|
G-|-----------------|-----------------|
D-|-3---3---3-3-3-3-|-+-3-3---3-3-3---|
A-|-3---3---3-3-3-3-|-+-3-3---3-3-3---|
E-|-1---1---1-1-1-1-|-+-1-1---1-1-1---|
    Taking a chance... one another.

    Q   Q   E E E Q     E Q   E E Q
E-|-----------------|-----------------|
B-|-----------------|-----------------|
G-|-----------------|-----------------|
D-|-7---7---7-7-7-2-|-+-2-2---2-2-2---|
A-|-7---7---7-7-7-2-|-+-2-2---2-2-2---|
E-|-5---5---5-5-5-0-|-+-0-0---0-0-0---|
    Finally, it's our           time

    Q   Q   E E E Q     E Q   E E E E
E-|-----------------|-----------------|
B-|-----------------|-----------------|
G-|-----------------|-----------------|
D-|-3---3---3-3-3-5-|-+-5-5---5-5-5-5-|
A-|-3---3---3-3-3-5-|-+-5-5---5-5-5-5-|
E-|-1---1---1-1-1-3-|-+-3-3---3-3-3-3-|
    now

    Q   Q   E E E Q     E Q   E E Q
E-|-----------------|-----------------|
B-|-----------------|-----------------|
G-|-5---5---5-5-5-5-|-+-5-5---5-5-5---|
D-|-5---5---5-5-5-5-|-+-5-5---5-5-5---|
A-|-3---3---3-3-3-3-|-+-3-3---3-3-3---|
E-|-----------------|-----------------|
    These are the...    remember,

    Q   Q   E E E Q     E Q   E E Q
E-|-----------------|-----------------|
B-|-----------------|-----------------|
G-|-----------------|-----------------|
D-|-3---3---3-3-3-3-|-+-3-3---3-3-3---|
A-|-3---3---3-3-3-3-|-+-3-3---3-3-3---|
E-|-1---1---1-1-1-1-|-+-1-1---1-1-1---|
    Breakin' the...   together.

    Q   Q   E E E Q     E Q   E E Q
E-|-----------------|-----------------|
B-|-----------------|-----------------|
G-|-----------------|-----------------|
D-|-7---7---7-7-7-2-|-+-2-2---2-2-2---|
A-|-7---7---7-7-7-2-|-+-2-2---2-2-2---|
E-|-5---5---5-5-5-0-|-+-0-0---0-0-0---|
    Finally, it's our           time

    Q   Q   E E E Q     E Q   E E E E
E-|-----------------|-----------------|
B-|-----------------|-----------------|
G-|-----------------|-----------------|
D-|-3---3---3-3-3-5-|-+-5-5---5-5-5-5-|
A-|-3---3---3-3-3-5-|-+-5-5---5-5-5-5-|
E-|-1---1---1-1-1-3-|-+-3-3---3-3-3-3-|
    now,      Its our         time

VERSE 2

    
E-|-----------------|
B-|-----------------| x 17
G-|-----------------|
D-|-----------------|
A-|-----------------| x 17
E-|-----------------|



CHORUS

    H       E E E E   Q   Q   E E E Q     E Q   E E Q
E-|---------X-X-X-X-|-----------------|-----------------|
B-|---------X-X-X-X-|-----------------|-----------------|
G-|---------X-X-X-X-|-5---5---5-5-5-5-|-+-5-5---5-5-5---|
D-|---------X-X-X-X-|-5---5---5-5-5-5-|-+-5-5---5-5-5---|
A-|---------X-X-X-X-|-3---3---3-3-3-3-|-+-3-3---3-3-3---|
E-|---------X-X-X-X-|-----------------|-----------------|
    Oh  oh            This is the...    the lovers,

    Q   Q   E E E Q     E Q   E E Q
E-|-----------------|-----------------|
B-|-----------------|-----------------|
G-|-----------------|-----------------|
D-|-3---3---3-3-3-3-|-+-3-3---3-3-3---|
A-|-3---3---3-3-3-3-|-+-3-3---3-3-3---|
E-|-1---1---1-1-1-1-|-+-1-1---1-1-1---|
    Taking a chance... one another.

    Q   Q   E E E Q     E Q   E E Q
E-|-----------------|-----------------|
B-|-----------------|-----------------|
G-|-----------------|-----------------|
D-|-7---7---7-7-7-2-|-+-2-2---2-2-2---|
A-|-7---7---7-7-7-2-|-+-2-2---2-2-2---|
E-|-5---5---5-5-5-0-|-+-0-0---0-0-0---|
    Finally, it's our           time

    Q   Q   E E E Q     E Q   E E E E
E-|-----------------|-----------------|
B-|-----------------|-----------------|
G-|-----------------|-----------------|
D-|-3---3---3-3-3-5-|-+-5-5---5-5-5-5-|
A-|-3---3---3-3-3-5-|-+-5-5---5-5-5-5-|
E-|-1---1---1-1-1-3-|-+-3-3---3-3-3-3-|
    now

    Q   Q   E E E Q     E Q   E E Q
E-|-----------------|-----------------|
B-|-----------------|-----------------|
G-|-5---5---5-5-5-5-|-+-5-5---5-5-5---|
D-|-5---5---5-5-5-5-|-+-5-5---5-5-5---|
A-|-3---3---3-3-3-3-|-+-3-3---3-3-3---|
E-|-----------------|-----------------|
    These are the...    remember,

    Q   Q   E E E Q     E Q   E E Q
E-|-----------------|-----------------|
B-|-----------------|-----------------|
G-|-----------------|-----------------|
D-|-3---3---3-3-3-3-|-+-3-3---3-3-3---|
A-|-3---3---3-3-3-3-|-+-3-3---3-3-3---|
E-|-1---1---1-1-1-1-|-+-1-1---1-1-1---|
    Breakin' the...   together.

    Q   Q   E E E Q     E Q   E E Q
E-|-----------------|-----------------|
B-|-----------------|-----------------|
G-|-----------------|-----------------|
D-|-7---7---7-7-7-2-|-+-2-2---2-2-2---|
A-|-7---7---7-7-7-2-|-+-2-2---2-2-2---|
E-|-5---5---5-5-5-0-|-+-0-0---0-0-0---|
    Finally,  it's our          time

    Q   Q   E E E Q     E Q   E E E E
E-|-----------------|-----------------|
B-|-----------------|-----------------|
G-|-----------------|-----------------|
D-|-3---3---3-3-3-5-|-+-5-5---5-5-5-5-|
A-|-3---3---3-3-3-5-|-+-5-5---5-5-5-5-|
E-|-1---1---1-1-1-3-|-+-3-3---3-3-3-3-|
    now,      Its our         time

    Q   Q   SSS E E   Q   Q   SSS E E
E-|-----------------|-----------------|
B-|-----------------|-----------------|
G-|-5---5---555-5-5-|-+---5---555-5-5-|
D-|-3---3---333-3-3-|-+---3---333-3-3-|
A-|-----------------|-----------------|
E-|-----------------|-----------------|
    now



BRIDGE

    Q   Q   SSS E E   Q   Q   SSS E E
E-|-----------------|-----------------|
B-|-----------------|-----------------|
G-|-7---7---777-7-7-|-+---7---777-7-7-|
D-|-5---5---555-5-5-|-+---5---555-5-5-|
A-|-----------------|-----------------|
E-|-----------------|-----------------|
    Oh    oh    oh        oh

    Q   Q   SSS E E   Q   Q   SSS E E
E-|-----------------|-----------------|
B-|-----------------|-----------------|
G-|-5---5---555-5-5-|-+---5---555-5-5-|
D-|-3---3---333-3-3-|-+---3---333-3-3-|
A-|-----------------|-----------------|
E-|-----------------|-----------------|

    Q   Q   SSS E E   Q   Q   SSS E E
E-|-----------------|-----------------|
B-|-----------------|-----------------|
G-|-7---7---777-7-7-|-+---7---777-7-7-|
D-|-5---5---555-5-5-|-+---5---555-5-5-|
A-|-----------------|-----------------|
E-|-----------------|-----------------|
    Oh    oh    oh        oh



VERSE

    W
E-|-----------------|
B-|-----------------| x 16
G-|-----------------|
D-|-----------------|
A-|-----------------| x 16
E-|-----------------|



CHORUS

    Q   Q   E E E Q     E Q   E E Q
E-|-----------------|-----------------|
B-|-----------------|-----------------|
G-|-5---5---5-5-5-5-|-+-5-5---5-5-5---|
D-|-5---5---5-5-5-5-|-+-5-5---5-5-5---|
A-|-3---3---3-3-3-3-|-+-3-3---3-3-3---|
E-|-----------------|-----------------|
    This is the...    the lovers,

    Q   Q   E E E Q     E Q   E E Q
E-|-----------------|-----------------|
B-|-----------------|-----------------|
G-|-----------------|-----------------|
D-|-3---3---3-3-3-3-|-+-3-3---3-3-3---|
A-|-3---3---3-3-3-3-|-+-3-3---3-3-3---|
E-|-1---1---1-1-1-1-|-+-1-1---1-1-1---|
    Taking a chance... one another.

    Q   Q   E E E Q     E Q   E E Q
E-|-----------------|-----------------|
B-|-----------------|-----------------|
G-|-----------------|-----------------|
D-|-7---7---7-7-7-2-|-+-2-2---2-2-2---|
A-|-7---7---7-7-7-2-|-+-2-2---2-2-2---|
E-|-5---5---5-5-5-0-|-+-0-0---0-0-0---|
    Finally, it's our           time

    Q   Q   E E E Q     Q   Q   Q
E-|-----------------|-----------------|
B-|-----------------|-----------------|
G-|-----------------|-----------------|
D-|-3---3---3-3-3-5-|-+-5---5---5---+-|
A-|-3---3---3-3-3-5-|-+-5---5---5---+-|
E-|-1---1---1-1-1-3-|-+-3---3---3---+-|
    now

    Q   Q   E E E Q     E Q   E E Q
E-|-----------------|-----------------|
B-|-----------------|-----------------|
G-|-5---5---5-5-5-5-|-+-5-5---5-5-5---|
D-|-5---5---5-5-5-5-|-+-5-5---5-5-5---|
A-|-3---3---3-3-3-3-|-+-3-3---3-3-3---|
E-|-----------------|-----------------|
    These are the...    remember,

    Q   Q   E E E Q     E Q   E E Q
E-|-----------------|-----------------|
B-|-----------------|-----------------|
G-|-----------------|-----------------|
D-|-3---3---3-3-3-3-|-+-3-3---3-3-3---|
A-|-3---3---3-3-3-3-|-+-3-3---3-3-3---|
E-|-1---1---1-1-1-1-|-+-1-1---1-1-1---|
    Bbbreakin'...       together.

    Q   Q   E E E Q     E Q   E E Q
E-|-----------------|-----------------|
B-|-----------------|-----------------|
G-|-----------------|-----------------|
D-|-7---7---7-7-7-2-|-+-2-2---2-2-2---|
A-|-7---7---7-7-7-2-|-+-2-2---2-2-2---|
E-|-5---5---5-5-5-0-|-+-0-0---0-0-0---|
    Finally,  it's our          time

    Q   Q   E E E Q     E Q   E E E E
E-|-----------------|-----------------|
B-|-----------------|-----------------|
G-|-----------------|-----------------|
D-|-3---3---3-3-3-5-|-+-5-5---5-5-5-5-|
A-|-3---3---3-3-3-5-|-+-5-5---5-5-5-5-|
E-|-1---1---1-1-1-3-|-+-3-3---3-3-3-3-|
    now,      Its our         time



OUTRO

    Q   Q   E E E Q     E Q   E E Q
E-|-----------------|-----------------|
B-|-----------------|-----------------|
G-|-4---4---4-4-4-4-|-+-4-4---4-4-4---|
D-|-2---2---2-2-2-2-|-+-2-2---2-2-2---|
A-|-----------------|-----------------|
E-|-----------------|-----------------|
    now.

    Q   Q   E E E Q     E Q   E E Q
E-|-----------------|-----------------|
B-|-----------------|-----------------|
G-|-----------------|-----------------|
D-|-5---5---5-5-5-5-|-+-5-5---5-5-5---|
A-|-3---3---3-3-3-3-|-+-3-3---3-3-3---|
E-|-----------------|-----------------|
                  its   our   time

    Q   Q   E E E Q     E Q   E E Q
E-|-----------------|-----------------|
B-|-----------------|-----------------|
G-|-4---4---4-4-4-4-|-+-4-4---4-4-4---|
D-|-2---2---2-2-2-2-|-+-2-2---2-2-2---|
A-|-----------------|-----------------|
E-|-----------------|-----------------|
    now.

    Q   Q   E E E Q     E Q   E E Q
E-|-----------------|-----------------|
B-|-----------------|-----------------|
G-|-----------------|-----------------|
D-|-5---5---5-5-5-5-|-+-5-5---5-5-5---|
A-|-3---3---3-3-3-3-|-+-3-3---3-3-3---|
E-|-----------------|-----------------|
    Oh    oh    oh      oh.

    W
E-|-----------------|
B-|-----------------| x 2
G-|-----------------|
D-|-----------------|
A-|-----------------| x 2
E-|-----------------|



FINAL CHORUS

    W
E-|-----------------|
B-|-----------------|
G-|-----------------|
D-|-7---------------|
A-|-7---------------|
E-|-5---------------|
    Finally,    its

    W
E-|-----------------|
B-|-----------------|
G-|-----------------|
D-|-2---------------|
A-|-2---------------|
E-|-0---------------|
    our     time


    W
E-|-----------------|
B-|-----------------|
G-|-----------------|
D-|-3---------------|
A-|-3---------------|
E-|-1---------------|
    now



+---------------+
| Tab Reference |
+---------------+

Almost none of these are in this song, but it's useful to know.

  h | Hammer-on
  p | Pull
  b | Bend
 pb | Pre-bend
 br | Bend-release
pbr | Pre-bend-release
brb | Bend-release-bend
  / | Slide up
  \ | Slide Down
  S | Slide to whatever the next note is
  T | Tapping
 TP | Tremelo picking
  X | Ghost Note
 PM | Palm mute
  * | Palm mute
  + | Continuation of last note




+--------+
| Lyrics | - Thanks to http://top10mp3download.blogspot.com
+--------+

Oh oh oh oh

There will be no rules tonight
If there were we'd break 'em
Nothing's gonna stop us now
Let's get down to it

Nervous hands and anxious smiles
I can feel you breathing
This is right where we belong
Turn up the music

Oh oh oh oh

This is the dance for all the lovers
Takin' a chance for one another
Finally it's our time now

These are the times that we'll remember
Breaking the city's heart together
Finally it's our time now
It's our time now

This is more than just romance
It's an endless summer
I can feel the butterflies
leading me through it

Take my heart, I'll take your hand
As we're falling under
This is an addiction girl
Let's give in to it

Oh oh oh oh

This is the dance for all the lovers
Takin' a chance for one another
Finally it's our time now
These are the times that we'll remember
Breaking the city's heart together
Finally it's our time now
It's our time now

Oh oh oh oh
Oh oh oh oh

Now
It's a dance
Get up
Come on brothers

Oh oh oh oh
Oh oh oh oh
Oh oh oh oh

This is the dance for all the lovers
Takin' a chance for one another
Finally it's our time now

These are the times that we'll remember
Bbbreaking the city's heart together
Finally it's our time now
It's our time now

(It's our time now)
It's our time now
(It's our time now)
Oh oh oh oh

Oh oh oh oh

Finally it's our time now




I have to say, this is probably the best PWT song, although Hey There
Delilah is close.

Good luck!
Tap to rate this tab
# A B C D E F G H I J K L M N O P Q R S T U V W X Y Z