Song name
# A B C D E F G H I J K L M N O P Q R S T U V W X Y Z

Plain White Ts - Your Fault tab

Well this a neat little riff and noone else had it in here so I decided to give it a 
This sounds right to me.


Guitar 1:
E-5--5h7p5--5---9---|
B--5------5---5---5-|
G-------------------|   x4 and then guitar 2 slides in with:
D-------------------|
A-------------------|
E-------------------|

Guitar 2:
E-9--9h10p9--9---12---|
B--10------10--10--10-|
G---------------------|
D---------------------|
A---------------------|
E---------------------|
Tap to rate this tab
# A B C D E F G H I J K L M N O P Q R S T U V W X Y Z