Song name
# A B C D E F G H I J K L M N O P Q R S T U V W X Y Z

Plain White Ts - Undconditional Love tab

Plain White T's - Undconditional love 


e------------------------|
b------------------------|
g--7---------------------|
d--7----5----2----7------|
a--5----5----2----7------|
E-------3---------5------|
 
e------------------------|
b------------------------|
g--7---------------------|
d--7----5----2----7------|
a--5----5----2----7------|
E-------3---------5------|

e------------------------|
b------------------------|
g--7---------------------|
d--7----5----2----7------|
a--5----5----2----7------|
E-------3---------5------|

e------------------------|
b------------------------|
g--7---------------------|
d--7----5----2----7------|
a--5----5----2----7------|
E-------3---------5------|

e------------------------|
b------------------------|
g--7---------------------|
d--7----5----2----7------|
a--5----5----2----7------|
E-------3---------5------|

e------------------------|
b------------------------|
g--7---------------------|
d--7----5----2----7------|
a--5----5----2----7------|
E-------3---------5------|

e------------------------|
b------------------------|
g--7---------------------|
d--7----5----2----7------|
a--5----5----2----7------|
E-------3---------5------|

e------------------------|
b------------------------|
g--7---------------------|
d--7----5----2----7------|
a--5----5----2----7------|
E-------3---------5------|

e------------------------|
b------------------------|
g--7---------------------|
d--7----5----2----7------|
a--5----5----2----7------|
E-------3---------5------|

e------------------------|
b------------------------|
g--7---------------------|
d--7----5----2----7------|
a--5----5----2----7------|
E-------3---------5------|

Thats the intro... But the rest.. I don't Know Sorry ...
Tap to rate this tab
 
# A B C D E F G H I J K L M N O P Q R S T U V W X Y Z