Song name
# A B C D E F G H I J K L M N O P Q R S T U V W X Y Z

Plain White Ts - Friends Dont Let Friends Dial Drunk tab

Band:Plain White T's 
Song:Friends Don't Let Friends Dial Drunk
Guitarists:
Lead-Tim Lopez
Rhythm-Dave Tirio
Album: Every Second Counts
Tuning:Standard (E,A,D,G,B,e)
Key:
\-slide down
/-slide up
\()-legato slide
~-let ring
PM.-palm mute
----------------------Lead-Guitar----------------- 

Intro:light distortion 
e|--------------------|   e|-------------------------|   
B|--------------------|   B|-------------------------|
G|-11-11-11-9-9-9-9-9-|   G|-11-11-11-13-13-13-13-13-|
D|-9--9--9--9-9-9-9-9-|x2 D|-11-11-11-11-11-11-11-11-|x2
A|--------------------|   A|-------------------------|
E|--------------------|   E|-------------------------|

e|--------------------|
B|--------------------|   
G|-11-11-11-9-9-9-9-9-|  
D|-9--9--9--9-9-9-9-9-|x4 
A|--------------------|   
E|--------------------|   

Verse: 
e|------------------------------------|
B|------------------------------------|   
G|-9-9--9---9-9--9---9-9--9---9-9--11-|  
D|-x-x--x---x-x--x---x-x--x---x-x--x--|x4
A|-7-7--7---7-7--7---7-7--7---7-7--9--|
E|------------------------------------|  

Pre-Chorus:
e|------------------------------------|
B|------------------------------------|   
G|-8-8--8---8-8--8---9-9--9---9-9--11-|  
D|-x-x--x---x-x--x---x-x--x---x-x--x--|x1
A|-6-6--6---6-6--6---7-7--7---7-7--9--|
E|------------------------------------|  

Chorus:
e|--------------------|   e|-------------------------|   
B|--------------------|   B|-------------------------|
G|-11-11-11-9-9-9-9-9-|   G|-11-11-11-13-13-13-13-13-|
D|-9--9--9--9-9-9-9-9-|x2 D|-11-11-11-11-11-11-11-11-|x2
A|--------------------|   A|-------------------------|
E|--------------------|   E|-------------------------|

e|--------------------|    e|--------|                          
B|--------------------|    B|--------|                         
G|-11-11-11-9-9-9-9-9-|    G|-9-9--9-|                              
D|-9--9--9--9-9-9-9-9-|x4  D|-x-x--x-|x1                            
A|--------------------|    A|-7-7--7-|                              
E|--------------------|    E|--------|                             

Verse:
e|------------------------------------|
B|------------------------------------|   
G|-9-9--9---9-9--9---9-9--9---9-9--11-|  
D|-x-x--x---x-x--x---x-x--x---x-x--x--|x4
A|-7-7--7---7-7--7---7-7--7---7-7--9--|
E|------------------------------------|  

Pre-Chorus:
e|------------------------------------|
B|------------------------------------|   
G|-8-8--8---8-8--8---9-9--9---9-9--11-|  
D|-x-x--x---x-x--x---x-x--x---x-x--x--|x1
A|-6-6--6---6-6--6---7-7--7---7-7--9--|
E|------------------------------------|  

Chorus:x2
e|--------------------|   e|-------------------------|   
B|--------------------|   B|-------------------------|
G|-11-11-11-9-9-9-9-9-|   G|-11-11-11-13-13-13-13-13-|
D|-9--9--9--9-9-9-9-9-|x2 D|-11-11-11-11-11-11-11-11-|x2
A|--------------------|   A|-------------------------|
E|--------------------|   E|-------------------------|

e|--------------------|
B|--------------------|   
G|-11-11-11-9-9-9-9-9-|  
D|-9--9--9--9-9-9-9-9-|x4 
A|--------------------|   
E|--------------------| 

Bridge:
e|--------0-7---|---0-5-----|------0-4----|--0-4----|
B|-4/(5)-------5|--0-5---5--|4/(5)------5-|-0-5---5-|
G|--------------|-----------|-------------|---------|
D|--------------|-----------|-------------|---------|x1
A|--------------|-----------|-------------|---------|
E|--------------|-----------|-------------|---------|

e|--------0-7---|---0-5-----|------0-4----|-------0-5----|
B|-4/(5)-------5|--0-5---5--|4/(5)------5-|-4/(5)------5-|
G|--------------|-----------|-------------|--------------|
D|--------------|-----------|-------------|--------------|x1
A|--------------|-----------|-------------|--------------|
E|--------------|-----------|-------------|--------------|

e|------------------|
B|------------------|   
G|-9-9--9---9-9--11-|  
D|-x-x--x---x-x--x--|x1
A|-7-7--7---7-7--9--|
E|------------------| 

Outro-Chorus:x3
e|--------------------|   e|-------------------------|   
B|--------------------|   B|-------------------------|
G|-11-11-11-9-9-9-9-9-|   G|-11-11-11-13-13-13-13-13-|
D|-9--9--9--9-9-9-9-9-|x2 D|-11-11-11-11-11-11-11-11-|x2
A|--------------------|   A|-------------------------|
E|--------------------|   E|-------------------------|

e|--------------------|
B|--------------------|   
G|-11-11-11-9-9-9-9-9-|  
D|-9--9--9--9-9-9-9-9-|x4 
A|--------------------|   
E|--------------------| 

Outro:
e|------|-----|
B|------|-----|
G|-9~---|-9\--|
D|-7~---|-9\--|
A|-7~---|-7\--|
E|------|-----|

------------------Rhythm-Guitar--------------------------

Intro:light distortion
e|-----------------------------------|
B|-----------------------------------|
G|-9999999999999999-6666666666666666-|
D|-9999999999999999-6666666666666666-|x1
A|-7777777777777777-4444444444444444-|
E|-----------------------------------|

e|-----------------------------------|
B|-----------------------------------|
G|-4444444444444444-4444444444444444-|
D|-2222222222222222-4444444444444444-|x1
A|-0000000000000000-2222222222222222-|
E|-----------------------------------| 

Verse:
e|------------------------------------|
B|------------------------------------|
G|-11111111---------------------------|
D|-22222222-66666666-7777777777777777-|x4
A|-22222222-66666666-7777777777777777-|
E|-00000000-44444444-5555555555555555-|
PM ........ ........ ................

Pre-Chorus:
e|-----------------------------------|
B|-----------------------------------|
G|------------------7777777777777777-|
D|-9999999999999999-7777777777777777-|x1
A|-9999999999999999-5555555555555555-|
E|-7777777777777777------------------|

Chorus:
e|-----------------------------------|
B|-----------------------------------|
G|-9999999999999999-6666666666666666-|
D|-9999999999999999-6666666666666666-|x1
A|-7777777777777777-4444444444444444-|
E|-----------------------------------|

e|-------------------------------------|
B|-------------------------------------|
G|-4444444444444444-4444444444444444-R-|
D|-2222222222222222-4444444444444444-E-|x1
A|-0000000000000000-2222222222222222-S-|
E|-----------------------------------T-|

Verse:
e|------------------------------------|
B|------------------------------------|
G|-11111111---------------------------|
D|-22222222-66666666-7777777777777777-|x4
A|-22222222-66666666-7777777777777777-|
E|-00000000-44444444-5555555555555555-|
PM ........ ........ ................

Pre-Chorus:
e|-----------------------------------|
B|-----------------------------------|
G|------------------7777777777777777-|
D|-9999999999999999-7777777777777777-|x1
A|-9999999999999999-5555555555555555-|
E|-7777777777777777------------------|

Chorus:x2
e|-----------------------------------|
B|-----------------------------------|
G|-9999999999999999-6666666666666666-|
D|-9999999999999999-6666666666666666-|x1
A|-7777777777777777-4444444444444444-|
E|-----------------------------------|

e|-----------------------------------|
B|-----------------------------------|
G|-4444444444444444-4444444444444444-|
D|-2222222222222222-4444444444444444-|x1
A|-0000000000000000-2222222222222222-|
E|-----------------------------------|

Bridge:
e|------------------------------------|
B|-22222222---------------------------|
G|-22222222-44444444-6666666666666666-|
D|-22222222-44444444-6666666666666666-|x1
A|-00000000-22222222-4444444444444444-|
E|------------------------------------|

e|--------------------------------------|
B|-22222222-----------------------------|
G|-22222222-44444444-6666666777777777-R-|
D|-22222222-44444444-6666666777777777-E-|x1
A|-00000000-22222222-4444444455555555-S-|
E|------------------------------------T-|

Outro-Chorus:x3
e|-----------------------------------|
B|-----------------------------------|
G|-9999999999999999-6666666666666666-|
D|-9999999999999999-6666666666666666-|x1
A|-7777777777777777-4444444444444444-|
E|-----------------------------------|

e|-----------------------------------|
B|-----------------------------------|
G|-4444444444444444-4444444444444444-|
D|-2222222222222222-4444444444444444-|x1
A|-0000000000000000-2222222222222222-|
E|-----------------------------------|

Outro:
e|------|-----|
B|------|-----|
G|-9~---|-9\--|
D|-7~---|-9\--|
A|-7~---|-7\--|
E|------|-----|
Tap to rate this tab
# A B C D E F G H I J K L M N O P Q R S T U V W X Y Z