Song name
# A B C D E F G H I J K L M N O P Q R S T U V W X Y Z

Plain White Ts - Lazy Day Afternoon tab

Ok, this is my first tab! I'm positive that this is very accurate. If you find any 
please let me know!

Tabbed by: Kyle Mogilev
Email: switchblade333@gmail.com

Tuning: Tune all strings 1/2 note down.

Intro

e|0-0-0-0-0-0-0-0-0-0-0-0-0-0-0-0-|
B|5-5-5-5-5-5-4-4-4-5-5-5-0-0-0-0-|
G|--------------------------------| X 2
D|--------------------------------|
A|--------------------------------|
E|--------------------------------|

1st Verse:

A                       E
Nothing's going on, but I don't care
A                            E
Leave me here, don't take me anywhere
F#m
Why should I get up
              C#m
When I've got nothing to do?
A             B            E
Just another lazy day afternoon


Play right when he says "noon":

e|0-0-0-0-0-0-0-0-0-0-0-0-0-0-0-0-|
B|5-5-5-5-5-5-4-4-4-5-5-5-0-0-0-0-|
G|--------------------------------| X 1
D|--------------------------------|
A|--------------------------------|
E|--------------------------------|

2nd Verse:

A                          E
Beautiful day outside, but I don't care
A                   E
Everything I need I got right here
F#m
Why should I go out?
             C#m
Why should I even move?
A             B            E
Just another lazy day afternoon


Play right when he says "noon":

e|0-0-0-0-0-0-0-0-0-0-0-0-0-0-0-0-|
B|5-5-5-5-5-5-4-4-4-5-5-5-0-0-0-0-|
G|--------------------------------| X 1
D|--------------------------------|
A|--------------------------------|
E|--------------------------------|

Chorus:
     C#m
Afternoon, when everybody's workin'
    A                           B
I'd rather be a jerk and lie around
     C#m
Afternoon, this day is just too perfect
A             B            E
Just another lazy day afternoon


Play right when he says "noon":

e|0-0-0-0-0-0-0-0-0-0-0-0-0-0-0-0-|
B|5-5-5-5-5-5-4-4-4-5-5-5-0-0-0-0-|
G|--------------------------------| X 1
D|--------------------------------|
A|--------------------------------|
E|--------------------------------|


1st Verse again:

A                       E
Nothing's going on, but I don't care
A                            E
Leave me here, don't take me anywhere
F#m
Why should I get up
              C#m
When I've got nothing to do?
A             B            E
Just another lazy day afternoon


Play right when he says "noon":

e|0-0-0-0-0-0-0-0-0-0-0-0-0-0-0-0-|
B|5-5-5-5-5-5-4-4-4-5-5-5-0-0-0-0-|
G|--------------------------------| X 1
D|--------------------------------|
A|--------------------------------|
E|--------------------------------|

One guitar continues to play the lick while another plays a background solo and the 
guitar plays the following chords with it:

Guitar 1
  A                                E
e|0-0-0-0-0-0-0-0-0-0-0-0-0-0-0-0-|0-0-0-0-0-0-0-0-0-0-0-0-0-0-0-0-|
B|5-5-5-5-5-5-4-4-4-5-5-5-0-0-0-0-|5-5-5-5-5-5-4-4-4-5-5-5-0-0-0-0-|
G|--------------------------------|--------------------------------|
D|--------------------------------|--------------------------------|
A|--------------------------------|--------------------------------|
E|--------------------------------|--------------------------------|

Guitar 2
e|0-----0-----------0-----2---4---|4-----2-----0-------------------|
B|------------4-------------------|--------------------------------|
G|--------------------------------|--------------------------------|
D|--------------------------------|--------------------------------|
A|--------------------------------|--------------------------------|
E|--------------------------------|--------------------------------|


Guitar 1
  A                                E
e|0-0-0-0-0-0-0-0-0-0-0-0-0-0-0-0-|0-0-0-0-0-0-0-0-0-0-0-0-0-0-0-0-|
B|5-5-5-5-5-5-4-4-4-5-5-5-0-0-0-0-|5-5-5-5-5-5-4-4-4-5-5-5-0-0-0-0-|
G|--------------------------------|--------------------------------|
D|--------------------------------|--------------------------------|
A|--------------------------------|--------------------------------|
E|--------------------------------|--------------------------------|

Guitar 2
e|0-----0-----------0-----2---4---|4-----2-----0-------------------|
B|------------4-------------------|--------------------------------|
G|--------------------------------|--------------------------------|
D|--------------------------------|--------------------------------|
A|--------------------------------|--------------------------------|
E|--------------------------------|--------------------------------|


Guitar 1
  F#m                              E
e|0-0-0-0-0-0-0-0-0-0-0-0-0-0-0-0-|0-0-0-0-0-0-0-0-0-0-0-0-0-0-0-0-|
B|5-5-5-5-5-5-4-4-4-5-5-5-0-0-0-0-|5-5-5-5-5-5-4-4-4-5-5-5-0-0-0-0-|
G|--------------------------------|--------------------------------|
D|--------------------------------|--------------------------------|
A|--------------------------------|--------------------------------|
E|--------------------------------|--------------------------------|

Guitar 2
e|0-----0-----0-----0-----0-/-9---|7-----4-----0-------------------|
B|2-----2-----2-----2-----2-/-10--|9-----5-----0-------------------|
G|2-----2-----2-----2-----2-------|--------------------------------|
D|--------------------------------|--------------------------------|
A|--------------------------------|--------------------------------|
E|--------------------------------|--------------------------------|


A             B            E
Just another lazy day afternoon


Chorus:
     C#m
Afternoon, when everybody's workin'
    A                           B
I'd rather be a jerk and lie around
     C#m
Afternoon, this day is just too perfect
A             B            E
Just another lazy day afternoon


Play right when he says "noon":

e|0-0-0-0-0-0-0-0-0-0-0-0-0-0-0-0-|
B|5-5-5-5-5-5-4-4-4-5-5-5-0-0-0-0-|
G|--------------------------------| X 1
D|--------------------------------|
A|--------------------------------|
E|--------------------------------|


Last verse:

A                          E
Beautiful day outside, but I don't care
A                   E
Everything I need I got right here
F#m
Why should I go out?
             G#m
Why should I even move?
A             B            E
Just another lazy day afternoon


Play right when he says "noon" while rhythm guitar plays the chords with it:

  A                                E
e|0-0-0-0-0-0-0-0-0-0-0-0-0-0-0-0-|4-------------------------------|
B|5-5-5-5-5-5-4-4-4-5-5-5-0-0-0-0-|5-------------------------------|
G|--------------------------------|--------------------------------|
D|--------------------------------|--------------------------------|
A|--------------------------------|--------------------------------|
E|--------------------------------|--------------------------------|

| /  slide up
| \  slide down
| h  hammer-on
| p  pull-off
| ~  vibrato
| +  harmonic
| x  Mute note
Tap to rate this tab
# A B C D E F G H I J K L M N O P Q R S T U V W X Y Z