Song name
# A B C D E F G H I J K L M N O P Q R S T U V W X Y Z

Plan 9 - Blood tab

-----------------------------------------------------------------------------
                                     Blood
-----------------------------------------------------------------------------
By: Plan 9
Album:Man Made Monster
Tabbed by: Myra
tuning:standard
http://www.myspace.com/plan9

Intro:Palm muted (not sure on strumming but you get the point)
e---------------------------------------------------------------------|
b---------------------------------------------------------------------|
g-2--5-4-4-4-4-4-4--2--5-4-4-4-4-4-4--2--5-4-4-4-4-4--2--5-4-4-4-4-4-4|
d-2--5-4-4-4-4-4-4--2--5-4-4-4-4-4-4--2--5-4-4-4-4-4--2--5-4-4-4-4-4-4|
a-0--3-2-2-2-2-2-2--0--3-2-2-2-2-2-2--0--3-2-2-2-2-2--0--3-2-2-2-2-2-2|
e---------------------------------------------------------------------|

verse: not palm muted 
e---------------------------------------------------------------------|
b---------------------------------------------------------------------|
g-2--5-4-4-4-4-4-4--2--5-4-4-4-4-4-4--2--5-4-4-4-4-4--2--5-4-4-4-4-4-4|
d-2--5-4-4-4-4-4-4--2--5-4-4-4-4-4-4--2--5-4-4-4-4-4--2--5-4-4-4-4-4-4|
a-0--3-2-2-2-2-2-2--0--3-2-2-2-2-2-2--0--3-2-2-2-2-2--0--3-2-2-2-2-2-2|
e---------------------------------------------------------------------|

Chorus:
e----------------------------------------------------------------------------|
b----------------------------------------------------------------------------|
g-2-5---------2-2-2-2--------------------------2-2-2-2-----------------------|
d-2-5-5-5-5-5-2-2-2-2-2-2-2-2-2-2-2-2--5-5-5-5-2-2-2-2-2-2-2-2-2-2-2-2--5-5-5|
a-0-3-5-5-5-5-0-0-0-0-2-2-2-2-2-2-2-2--5-5-5-5-0-0-0-0-2-2-2-2-2-2-2-2--5-5-5|
e-----3-3-3-3---------0-0-0-0-0-0-0-0--3-3-3-3---------0-0-0-0-0-0-0-0--3-3-3|

e------------------------------------------------------------|
b------------------------------------------------------------|
g---2-2-2-2---------2-2-2-2---------2-2-2-2-4-4-4-4-4-4-4-4--|
d-5-2-2-2-2-5-5-5-5-2-2-2-2-3-3-3-3-2-2-2-2-4-4-4-4-4-4-4-4--|
a-5-0-0-0-0-5-5-5-5-0-0-0-0-3-3-3-3-0-0-0-0-2-2-2-2-2-2-2-2--|
e-3---------3-3-3-3---------5-5-5-5--------------------------|

then thats pretty much it repeat verse, chorus, intro(palm muted), verse, and 
chorus in that order.
Tap to rate this tab
# A B C D E F G H I J K L M N O P Q R S T U V W X Y Z