Song name
# A B C D E F G H I J K L M N O P Q R S T U V W X Y Z

Plan B - Mama tab

-------------------------------------------------------------------------------
                             Mama - Plan B
-------------------------------------------------------------------------------


Mama (loves a crackhead) by Plan B
From his album 'Who needs actions when you got words'.

v - strum down
^ - strum up
x - mute

Verse:

    v ^   v ^   v ^ v v ^   v ^   v ^ v v ^   v ^   v ^ V ^ V ^   v ^
e|--X-X---X-X---X-X-x-X-X---X-X---X-X-x-X-X---X-X---X-X-X-X-X-X---X-X--|
B|--8-8---8-8---8-8-x-7-7---7-7---7-7-x-5-5---5-5---5-5-4-4-6-6---6-6--|
G|--9-9---9-9---9-9-x-7-7---7-7---7-7-x-5-5---5-5---5-5-4-4-7-7---7-7--|
D|--9-9---9-9---9-9-x-9-9---9-9---9-9-x-7-7---7-7---7-7-6-6-7-7---7-7--|
A|--7-7---7-7---7-7-x-9-9---9-9---9-9-x-7-7---7-7---7-7-6-6-5-5---5-5--|
E|--7-7---7-7---7-7-x-7-7---7-7---7-7-x-5-5---5-5---5-5-4-4-5-5---5-5--|

Chorus:
    v  v ^ v  v ^  v ^  v  v ^ v  v ^  v ^
e|--X--X-X-X--X-X--X-X--X--X-X-X--X-X--X-X--|
B|--8--8-8-8--8-8--8-8--7--7-7-7--7-7--7-7--|
G|--9--9-9-9--9-9--9-9--7--7-7-7--7-7--7-7--|
D|--9--9-9-9--9-9--9-9--9--9-9-9--9-9--9-9--|
A|--7--7-7-7--7-7--7-7--9--9-9-9--9-9--9-9--|
E|--7--7-7-7--7-7--7-7--7--7-7-7--7-7--7-7--|

    v  v ^ v  v ^  v ^  v  v ^ v  v ^  v ^
e|--X--X-X-X--X-X--X-X--X--X-X-X--X-X--X-X--|
B|--5--5-5-5--5-5--5-5--6--6-6-6--6-6--6-6--|
G|--5--5-5-5--5-5--5-5--7--7-7-7--7-7--7-7--|
D|--7--7-7-7--7-7--7-7--7--7-7-7--7-7--7-7--|
A|--7--7-7-7--7-7--7-7--5--5-5-5--5-5--5-5--|
E|--5--5-5-5--5-5--5-5--5--5-5-5--5-5--5-5--|

Enjoy x
Tap to rate this tab
 
# A B C D E F G H I J K L M N O P Q R S T U V W X Y Z