Song name
# A B C D E F G H I J K L M N O P Q R S T U V W X Y Z

Plan B - Stay Too Long tab

-----------------------------------------------------------------------------
			    Plan B - Stay Too Long
-----------------------------------------------------------------------------
Tabbed by: Balazs Toth	
Email: xxbalazs@gmail.com

Tuning: standard

Hy guys. 
I figure it out myself this songs tab but I'm not sure it's 100% perfect.
If somebody find a mistake please contact me.
I think he play the 1st 2nd 3rd and sometimes the 4th strings, 
but I write the whole tabs to figure it out what chords do you need to push.
I don't know all chords name I'm a beginner and this is my first post.

so the tab:

(s=slide)


intro and verse:
      s
e||--1-3--3--8--6--3--1--1--||
B||--1-3--3--8--6--3--1--1--||
G||--2-4--4--9--7--4--2--2--||
D||--3-5--5--10-8--5--3--3--||
A||--3-5--5--10-8--5--3--3--||
E||--1-3--3--8--6--3--1--1--||
     repeat this 4 time


chorus:

e||--1--5--3--8---6--3--1--1--||
B||--1--5--3--8---6--3--1--1--||
G||--2--5--4--9---7--4--2--2--||
D||--3--7--5--10--8--5--3--3--||
A||--3--7--5--10--8--5--3--3--||
E||--1--5--3--8---6--3--1--1--||
      repeat this 2 time


verse:
      s
e||--1-3--3--6--11--6--||
B||--1-3--3--6--11--6--||
G||--2-4--4--7--12--7--||
D||--3-5--5--8--13--8--||
A||--3-5--5--8--13--8--||
E||--1-3--3--6--11--6--||
   repeat this 8 time


chorus:

e||--1--5--3--8---6--3--1--1--||
B||--1--5--3--8---6--3--1--1--||
G||--2--5--4--9---7--4--2--2--||
D||--3--7--5--10--8--5--3--3--||
A||--3--7--5--10--8--5--3--3--||
E||--1--5--3--8---6--3--1--1--||
      repeat this 2 time


verse:
      s
e||--1-3--3--6--11--6--||
B||--1-3--3--6--11--6--||
G||--2-4--4--7--12--7--||
D||--3-5--5--8--13--8--||
A||--3-5--5--8--13--8--||
E||--1-3--3--6--11--6--||
    repeat this 4 time


chorus:

e||--1--5--3--8---6--3--1--1--||
B||--1--5--3--8---6--3--1--1--||
G||--2--5--4--9---7--4--2--2--||
D||--3--7--5--10--8--5--3--3--||
A||--3--7--5--10--8--5--3--3--||
E||--1--5--3--8---6--3--1--1--||
      repeat this 4 time


verse:
      s
e||--1-3--3--6--11--6--||
B||--1-3--3--6--11--6--||
G||--2-4--4--7--12--7--||
D||--3-5--5--8--13--8--||
A||--3-5--5--8--13--8--||
E||--1-3--3--6--11--6--||
   repeat this 23 time

And thats it you play the whole song ^^
Tap to rate this tab
 
# A B C D E F G H I J K L M N O P Q R S T U V W X Y Z