Song name
# A B C D E F G H I J K L M N O P Q R S T U V W X Y Z

Plan B - Stay Too Long tab

I based this tab on what I saw on their 'recording-movie' and their 
live-version...
I'll hope you'll enjoy this tab!!!

part 1

|--------------------------------|
|------5-(5)-(3)-5--1-1----------|
|--2/4-4--5---3--4--2-2----------|
|--3/5-5--5---3--5--3-3----------|  X 4
|--3/5-5--3--(3)-5--3-3----------|
|--1/3-3---------3--1-1----------|

part 2

|---------------------------------------|
|----1-1----1-1------3-3-(5)(3)---------|
|--2-2-2--2-2-2--4-4-4-4--5--3--4-2-----|
|--3-3-3--2-2-2--5-5-5-5--5--3--5-3-----|   X 2
|--3-3-3--0-0-0--5-5-5-5--3--3--5-3-----|
|--1-1-1---------3-3-3-3--------3-1-----|

than you play 'part 1' again,

part 3:
(= part 2 but with another end)

|---------------------------------------|
|----1-1----1-1------3-3-(5)(3)---------|
|--2-2-2--2-2-2--4-4-4-4--5--3--4-2-----|
|--3-3-3--2-2-2--5-5-5-5--5--3--5-3-----|   X 3
|--3-3-3--0-0-0--5-5-5-5--3--3--5-3-----|
|--1-1-1---------3-3-3-3--------3-1-----|

|------------------------------------------------------------|
|----1-1----1-1------(5)---------(5)---------(5)-------------|
|--2-2-2--2-2-2--4-4--5-4--x-4-4--5-4--x-4-4--5-4--x--4------|
|--3-3-3--2-2-2--5-5--5-5--x-5-5--5-5--x-5-5--5-5--x--5------|   
|--3-3-3--0-0-0--5-5--3-5--x-5-5--3-5--x-5-5--3-5--x--5------|
|--1-1-1---------3-3----3--x-3-3----3--x-3-3----3--x--3------|


bridge 1:

(guitar 1, distortion) (guitar 2, clean)
|------------------------6--11--6-(6)-------------|
|------------------------6--11--6-(6)-------------|
|-x-----4----------------7--12--7-(7)-------------|
|-x-3/5-5----------------8--13--8-(8)-------------|   X 8
|-x-3/5-5----------------8--13--8-(8)-------------|
|-x-1/3-3----------------6--11--6-(6)-------------|

bridge 2:
                  (only second time, distortion)
|--1---5---5----------------------------------------|
|--1---5---5--------------------5-5-5-5 ...---------|
|--2---5---4--------------4-4-4-4-4-4-4 ...---------|
|--3---7---5----------5-5-5-5-5-5-5-5-5 ...---------|   X 2
|--3---7---5----------5-5-5-5-5-5-5-5-5 ...---------|
|--1---5---3----------3-3-3-3-3-3-3-3-3 ...---------|


than you play 'part 1' again,

than you play 'part 3' again, but keep the last chords playing...

than you play 'bridge 1' again, and again and again...  :-)


Enjoy this hapy, chil, funny song!!!

Made by Ben P.
Tap to rate this tab
 
# A B C D E F G H I J K L M N O P Q R S T U V W X Y Z