Plan B - Sick 2 Def tab

Hey guys, I don't know if it's those Fingerings have any name,
if they had, i would not know them. but those tabs are the right
ones, 100% ! The Numbers on my "strings" are the fingers, with
wich you have to push the string down.


fret:   1    2     3     4    5
   e|-----|----1|-----|-----|---|
   b|-----|----1|-----|-----|---|
   g|-----|----1|-----|-----|---|
   d|-----|-----|-----|--3--|---|
   a|-----|-----|-----|---4-|---|
   E|xxxxx|xxxxx|xxxxx|xxxxx|---|

YOU STRIKE THESE 5 strings AT A TIME.
YOU HAVE TO PLAY IT FOR 2 BARS, THEN
YOU PUSH YOUR 2ND FINGER DOWN:

fret:   1    2     3     4    5
   e|-----|----1|-----|-----|---|
   b|-----|----1|-----|-----|---|
   g|-----|----1|--2--|-----|---|
   d|-----|-----|-----|--3--|---|
   a|-----|-----|-----|---4-|---|
   E|xxxxx|xxxxx|xxxxx|xxxxx|---|

YOU PLAY THIS CHORD AND FOR 2 BARS AND
THEN REPEAT THE 1ST ONE.

Never strike the low E-string.

Hope it helped, hf ! :)
Tap to rate this tab
 
# A B C D E F G H I J K L M N O P Q R S T U V W X Y Z