Song name
# A B C D E F G H I J K L M N O P Q R S T U V W X Y Z

Plan B - Stay Too Long tab

Nice, standard tuning!! :)

If you listen to the song the rhythm is simple. :)

Intro & Verse
e ------------------------|
B ------------------------|
G ------------------------| x4
D -3/5-5--10--8--5--3--3--|
A -3/5-5--10--8--5--3--3--|
E -1/3-3---8--6--3--1--1--|

Chorus (1st time)
e -------------------------|
B -------------------------|
G -------------------------| x2 listen to song for rhythm on chorus.
D -3--7--5--10--8--5--3--3-|
A -3--7--5--10--8--5--3--3-|
E -1--5--5---8--6--3--1--1-|

Verse
e ------------------------|
B ------------------------|
G ------------------------| x4
D -3/5-5--10--8--5--3--3--|
A -3/5-5--10--8--5--3--3--|
E -1/3-3---8--6--3--1--1--|

Chorus (2nd time)
E -------------------------|              e -------|
B -------------------------|              B -------|
G -------------------------| x4           G -------| x3
D -3--7--5--10--8--5--3--3-|              D -5-5-5-|
A -3--7--5--10--8--5--3--3-|              A -5-5-5-|
E -1--5--5---8--6--3--1--1-|              E -3-3-3-|
Tap to rate this tab
 
# A B C D E F G H I J K L M N O P Q R S T U V W X Y Z