Song name
# A B C D E F G H I J K L M N O P Q R S T U V W X Y Z

Plan B - Dead And Buried tab

Standard Tuning



Plan B - Dead and Buried





e|---------------------------------------------------------------------------|
B|---3---4-----------4----------------------------3----4-----------4---------|
G|-----------------------------------------------------------------------0---|
D|---------------------------------------------------------------------------|
A|---3---3------3----------3----------------------3----3-------3-------------|
E|---------------------------------------------------------------------------|

e|---------------------------------------------------------------------------|
B|---------------------------------------------------------------------------|
G|----2----3------------3----------------------------------------------------|
D|---------------------------------------------------------------------------|
A|----0----1-----1------------1----------------------------------------------|
E|---------------------------------------------------------------------------|


Enjoy!
Tap to rate this tab
# A B C D E F G H I J K L M N O P Q R S T U V W X Y Z