Song name
# A B C D E F G H I J K L M N O P Q R S T U V W X Y Z

Plan B - No More Eating tab

Standard tuning EADGBe

Tabbed by Ben Wright

Any feedback appreciated, either leave a comment or email friskyfleabag@aol.com

Listen to song for timing etc

Intro

e---1---------3---------0--------1------------|
B---3---------3---------3--------3------------|
G---2---------2---------2--------2------------|
D---0---------0---------0--------0------------|
A---------------------------------------------|
E---------------------------------------------|

Chorus ('No more eating for them now') (0:13)
e---1-11111---3-33333---0-00000---1-1h33p111p00h1---------|
B---3-33333---3-33333---3-33333---3-3-33-33--33-3---------|
G---2-22222---2-22222---2-22222---2-2-22-22--22-2---------|
D---0-00000---0-00000---0-00000---0-0-00-00--00-0---------|
A---------------------------------------------------------|
E---------------------------------------------------------|

'No more eating for them now'(0:26)
e---1-11111---3-33333---0-00000---1----------------------|
B---3-33333---3-33333---3-33333---3----------------------|
G---2-22222---2-22222---2-22222---2----------------------|
D---0-00000---0-00000---0-00000---0----------------------|
A--------------------------------------------------------|
E--------------------------------------------------------|

Verse ('It started when I was eight') (0:38)
e---1---------3---------0--------1------------|
B---3---------3---------3--------3------------|
G---2---------2---------2--------2------------|
D---0---------0---------0--------0------------|
A---------------------------------------------|
E---------------------------------------------|


('Now my stepdad's pissed') (0:51)
e---1---------3---------0--------1-11111p00h1----------|
B---3---------3---------3--------3-33333-33-3----------|
G---2---------2---------2--------2-22222-22-2----------|
D---0---------0---------0--------0-00000-00-0----------|
A------------------------------------------------------|
E------------------------------------------------------|

  'Turn the page'  'Life's a daze'   'High is how' 'Cos though I'm holding'
       (1:04)         (1:07)            (1:10)            (1:13)
e----1h333p1111-----1h333p111---------1h333p111--------1h333p111p00h1---|
B----3-333-3333-----3-333-333---------3-333-333--------3-333-333-33-3---|
G----2-222-2222-----2-222-222---------2-222-222--------2-222-222-22-2---| x2
D----0-000-0000-----0-000-000---------0-000-000--------0-000-000-00-0---|
A-----------------------------------------------------------------------|
E---------------0-1-------------1-3---------------0-1------0------------|

Looks pretty complicated but it's not, all it is is a fiddle with the high e string

Chorus (1:29)

'No more eating for them now'
e---1-11111---3-33333---0-00000---1-1h33p111p00h1---------|
B---3-33333---3-33333---3-33333---3-3-33-33--33-3---------|
G---2-22222---2-22222---2-22222---2-2-22-22--22-2---------|
D---0-00000---0-00000---0-00000---0-0-00-00--00-0---------|
A---------------------------------------------------------|
E---------------------------------------------------------|

'No more eating for them now'(1:42)
e---1-11111---3-33333---0-00000---1----------------------|
B---3-33333---3-33333---3-33333---3----------------------|
G---2-22222---2-22222---2-22222---2----------------------|
D---0-00000---0-00000---0-00000---0----------------------|
A--------------------------------------------------------|
E--------------------------------------------------------|


Next verse is same as the 1st (same as 0:38 to 1:29), but the final section is repeated 
times instead of 2

Verse ('No more thinking too deep') (1:55)

e---1---------3---------0--------1------------|
B---3---------3---------3--------3------------|
G---2---------2---------2--------2------------|
D---0---------0---------0--------0------------|
A---------------------------------------------|
E---------------------------------------------|


('As I walked through the valley') (2:08)
e---1---------3---------0--------1-11111p00h1----------|
B---3---------3---------3--------3-33333-33-3----------|
G---2---------2---------2--------2-22222-22-2----------|
D---0---------0---------0--------0-00000-00-0----------|
A------------------------------------------------------|
E------------------------------------------------------|

from 'I'm 19 years to the day' (2:20 - 3:12)
e----1h333p1111-----1h333p111--------1h333p111--------1h333p111p00h1---|
B----3-333-3333-----3-333-333--------3-333-333--------3-333-333-33-3---|
G----2-222-2222-----2-222-222--------2-222-222--------2-222-222-22-2---| x4
D----0-000-0000-----0-000-000--------0-000-000--------0-000-000-00-0---|
A----------------------------------------------------------------------|
E---------------0-1------------1-3---------------0-1------0------------|


'You made a mistake bro' (3:12)
e---1---------3---------0--------1-11111p0----|
B---3---------3---------3--------3-33333-3----|
G---2---------2---------2--------2-22222-2----|
D---0---------0---------0--------0-00000-0----|
A---------------------------------------------|
E---------------------------------------------|


Chorus

'No more eating for you now' (3:25 - end)
e---1-11111---3-33333---0-00000---1-1h33p111p00h1---------|
B---3-33333---3-33333---3-33333---3-3333-33--33-3---------|
G---2-22222---2-22222---2-22222---2-2222-22--22-2---------|  x5
D---0-00000---0-00000---0-00000---0-0000-00--00-0---------|
A---------------------------------------------------------|
E---------------------------------------------------------|

As I've said, it looks a lot more complicated than it is - throughout the whole song, 
from the bassline in the verse, the only other string that you have to play different 
of is the high E string. Does that even make sense? Never mind, I'm tired.

Enjoy the tab, it'd be great if you could rate it and leave comments :o)
Tap to rate this tab
 
# A B C D E F G H I J K L M N O P Q R S T U V W X Y Z