Song name
# A B C D E F G H I J K L M N O P Q R S T U V W X Y Z

Plan Three - The Collision tab

-------------------------------------------------------------------------------
                             The collision - Plan Three [Intro]
-------------------------------------------------------------------------------
Band Website: http://www.planthreeband.com/
Tabbed by: kerk12
E-mail: kerk12gr@gmail.com

Tuning: Drop D[D,A,D,G,B,E]

e|---------------------------------------------------------------------------|
B|---------------------------------------------------------------------------|
G|-----5---------5--------5--------5-------6--------6--------6--------6------|
D|--------3---------3--------3-------3--------4--------4--------4--------4---|
A|--3---------3--------3--------3-------4--------4--------4--------4---------|
D|---------------------------------------------------------------------------|

e|---------------------------------------------------------------------------|
B|---------------------------------------------------------------------------|
G|-----8--------8--------8--------8--------6--------6--------6--------6------|
D|--------6--------6--------6--------6--------4--------4--------4--------4---|
A|--6--------6--------6--------6--------4--------4--------4--------4--------4|
D|---------------------------------------------------------------------------|

Repeat the whole intro twice.
Tap to rate this tab
 
# A B C D E F G H I J K L M N O P Q R S T U V W X Y Z