Song name
# A B C D E F G H I J K L M N O P Q R S T U V W X Y Z

Plane Divides The Sky - Waves Calling To Embrace tab

Song:Waves Calling to Embrace
Album:The Campaign to Capture
Artist:Plane Divides The Sky
Date Tabbed:January,2007
Guitar Tabber:Ryan Manongdo/16/m/Philippines
              no_falter0x@yahoo.com(Friendster&YM)

Gtr.Legends:
~ - let it ring
. - palm muting
/ - slide

Gtr.Tuning:Standard(Normal)

Intro:
e|----------------      ---------------------|
B|-55-555--33-333-      -55-555---3--1--3~---|
G|-55-555--33-333- 3x   -55-555---3--1--3~---|
D|-33-333--11-111- Then -33-333---1-----1~---|
A|----------------      ---------------------|
E|----------------      ---------------------|

Verse 1:
e|----------------------------------------------------------------------------|
B|----------------------------------------------------------------------------|
G|-5~--7~--8~-8888---5~--7~--3~---5~--7~--8~-8888---5~--7~---3~------3~-------| Then
D|-3~--5~--6~-6666---3~--5~--1~---3~--5~--6~-6666---3~--5~---1~--6~--1~--6~---|
A|---------------------------------------------------------------4-------4~---|
E|----------------------------------------------------------------------------|

Pre-Verse 2:
e|--------------|
B|-4444--2222---|
G|-4444--2222---| 2x
D|-2222--0000---|
A|--------------|
E|--------------|
   ....  ....

Verse 2:
e|-----------------------------------------------------------|
B|-----------------------------------------------------------|
G|-5~--7~--8~-8888---5~--7~--3~---5~--7~--8~-8888---5~--7~---| Then
D|-3~--5~--6~-6666---3~--5~--1~---3~--5~--6~-6666---3~--5~---|
A|-----------------------------------------------------------|
E|-----------------------------------------------------------|

Pre-Chorus:
e|----------|
B|----------|
G|-3~-------| 4x
D|-1~--6~---|
A|-----4~---|
E|----------|

Chorus:
e|----------------      ---------------------|
B|-55-555--33-333-      -55-555---3--1--3~---|
G|-55-555--33-333- 7x   -55-555---3--1--3~---|
D|-33-333--11-111- Then -33-333---1-----1~---|
A|----------------      ---------------------|
E|----------------      ---------------------|
   .. ...  .. ...

Bridge:
Gtr.1
e|-----------|
B|-----------|
G|-4~--------|
D|-4~---6~---|
A|-2~---6~---|
E|------4~---|

Gtr.2
e|-----9~----6--------|
B|-7/9-----7---7------|
G|---------------8~---|
D|--------------------|
A|--------------------|
E|--------------------|

Repeat Pre-Chorus:

Repeat Pre-Verse 2:

Repeat Verse:

Repeat Pre-Chorus:

Repeat Chorus:

Last Chord:
e|------|
B|-2~---|
G|-2~---|
D|-2~---|
A|-0~---|
E|------|

End...
Tap to rate this tab
# A B C D E F G H I J K L M N O P Q R S T U V W X Y Z