Song name
# A B C D E F G H I J K L M N O P Q R S T U V W X Y Z

Planet Of Zeus - Leftovers tab

Planet of zeus - Leftovers
http://www.planetofzeus.gr/

drop C# tuning


intro-theme

---------------------------------------------------|
---------------------------------------------------|
---------------------------------------------------|
---5b6r5-3----------3-----5b6r5-3--------3---------|
------------5--3-5----5-----------5-3-5--3---------|
-0----------------------0----------------3---------|


------------------------------|
------------------------------|
------------------------------|
---5b6r5-3-------3-----3----5-|
-----------5-3-5---5-0-3--0-5-|
-0-------------------0-3--0-5-| x4

end on ---
       ---
       ---
       -3~
       ---
       ---

verse

------------------------------------|
------------------------------------|
------------------------------------|
---3b3.5-------3-----3b3.5-------3--|
---------5-3-5---5---------5-3-5-3--|
-0-----------------0-------------3--|

---------------------------|
---------------------------|
---------------------------|
---3b3.5-------3-----3---5-|
---------5-3-5---5-0-3-0-5-|
-0-----------------0-3-0-5-|   x3

chorus (first guitar is theme)

--------------------------------|
--------------------------------|
--------------------------------|
-12~-10~-5~----3----3----3----3-|
-12~-10~-5~--0-3--0-3--0-3--0-3-|
-12~-10~-5~--0-3--0-3--0-3--0-3-|

riff x2

verse x2

chorus

solo

-------------------------------------------------------------------------------------------|
-------------------------------------------------------------------------------------------|
--10~-10h12p10-------12-12---12----12-12----12---------------------------------------------|
---------------12-10------10---10s9------9------10s12-12-12-12s15-15-15-15s17-17-17-17s15--|
-------------------------------------------------------------------------------------------|
-------------------------------------------------------------------------------------------|

-----------------------------------------------------------------------|
-----------------------------------------------------------------------|
------------------17----17---------------------------------------------|
-17--17-17s15--15----17---17-15-------17-17---17---------17-17---17----|
--------------------------------17-15------15----15-15s14------14---14-|
-----------------------------------------------------------------------| x2(sort of)

end on
---------------------------------------------------|
---------------------------------------------------|
---------------------------------------------------|
---5b6r5-3----------3-----5b6r5-3--------3---------|
------------5--3-5----5-----------5-3-5--3---------|
-0----------------------0----------------3---------|
Tap to rate this tab
 
# A B C D E F G H I J K L M N O P Q R S T U V W X Y Z