Song name
# A B C D E F G H I J K L M N O P Q R S T U V W X Y Z

Planet Of Zeus - Vanity Suit tab

Planet of Zeus

http://www.planetofzeus.gr/

Vanity Suit

Drop C# tuning


intro

--------------------------------|
--------------------------------|
--------------------------------|
-------5-5-5-5-------5-5-5-5----|
--7--7----------7-7-------------|
--7--7----------7-7-------------| x4

riff
--------------------------------|
--------------------------------|
--------------------------------|
-------5-5-5-5-------5-5-5-5----|
--7--7----------7-7-------------|
--7--7----------7-7-------------| x4

-----------------------------------|
-----------------------------------|
--------------5--------------------|
--------------5--------------------|
--5s7-7-7s5-5-----7-7-5//----------|
--5s7-7-7s5-5----------------------| x4

-------------------------------------------|
-------------------------------------------|
-------------------------------------------|
-----5-----------5--------5----------------|
-----------------------------------------3-|
-7-7--7-5-7--7--7-7-5--7-7-7-5-7-7--7-5-7--|

---------------------------------|
---------------------------------|
---------------------------------|
-----5-----------5--------5------|
---------------------------------|
-7-7--7-5-7--7--7-7-5--7-7-7-5-7-|



verse (same but palm muted)

-------------------------------------------|
-------------------------------------------|
-------------------------------------------|
-----5-----------5--------5----------------|
-----------------------------------------3-|
-7-7--7-5-7--7--7-7-5--7-7-7-5-7-7--7-5-7--|

-------------------------------------------|
-------------------------------------------|
-------------------------------------------|
-----5-----------5--------5----------5-----|
-------------------------------------------|
-7-7--7-5-7--7--7-7-5--7-7-7-5-7--7-7-7-5--| x2

chorus

------------------------------------------------------------------------|
------------------------------------------------------------------------|
------------------------------------------------------------------------|
------------------------0-----------------------------------------------|
-7-7-10-10-10-10-10s3-3-0-3b3.5---0--0-0-12-0-0-10-12-0-12-10-0-10b10.5-|
-7-7--------------------0-3b3.5---0--0-0-12-0-0-10-12-0-12-10-0-10b10.5-|

x3

---------------------------------------|
---------------------------------------|
---------------------------------------|
------------------------0---------0----|
-7-7-10-10-10-10-10s3-3-0-3b3.5---0----|
-7-7--------------------0-3b3.5---0----|


-----------------------------------|
-----------------------------------|
--------------5--------------------|
--------------5--------------------|
--5s7-7-7s5-5-----7-7-5//----------|
--5s7-7-7s5-5----------------------| x4

verse

chorus

bridge
--------------------------------------|
--------------------------------------|
--------------------------------------|
--------------------------------------|
--------------------------------------|
0--0-0-12-0-0-10-12-0-12-10-0-10b10.5-| x8

breakdown-outro

--------------------------------------|
--------------------------------------|
--------------------------------------|
--------------------------------------|
0--0-0-12-0-0-10-12-0-12-10-0-10b10.5-|
0--0-0-12-0-0-10-12-0-12-10-0-10b10.5-| x4

--------------------------------------|
--------------------------------------|
--------------------------------------|
--------------------------------------|
0--0-0-12-0-0-10-12-0-12-10-0-10b10.5-|
0--0-0--------------------------------| x4

------------------------|
------------------------|
------------------------|
------------------------|
------8---7-8-8-7-5-7---|
8--8-8---8-8---8--------| x2

--------------------------------------|
--------------------------------------|
--------------------------------------|
--------------------------------------|
0--0-0-12-0-0-10-12-0-12-10-0-10b10.5-|
0--0-0-12-0-0-10-12-0-12-10-0-10b10.5-| x4

------------------------|
------------------------|
------------------------|
------------------------|
------8---7-8-8-7-5-7---|
8--8-8---8-8---8--------| x2

--------------------------------------|
--------------------------------------|
--------------------------------------|
-0-0---7s10-10-10--0-0--7s10-10-0-----|
-0-0---7s10-10-10--0-0--7s10-10-0-----|
-0-0---7s10-10-10--0-0--7s10-10-0-----| x3

--------------------------------------|
--------------------------------------|
--------------------------------------|
--------------------------------------|
0--0-0-12-0-0-10-12-0-12-10-0-10b10.5-|
0--0-0-12-0-0-10-12-0-12-10-0-10b10.5-|


chears
Tap to rate this tab
# A B C D E F G H I J K L M N O P Q R S T U V W X Y Z