Song name
# A B C D E F G H I J K L M N O P Q R S T U V W X Y Z

Planet Of Zeus - Macho Libre tab

Planet of Zeus

http://www.planetofzeus.gr/

Macho Libre

Drop C# tuning


intro-theme

-----------/------------------------------|
-----------/------------------------------|
-7~--------/------------------------------|
----5-8//--/------------------------------|
---------0-/----3s5-3s5--------3----------|
---------0-/---0--------0-0-3-5-5-3b3.5p0-|

--------------------------------------------------|
--------------------------------------------------|
--------------------------------------------------|
-----------------------5b6r5-3--------------------|
---3s5-3s5---------3-0---------5---5-3-5----------|
-0---------0-0-3-5---------------0--------0-0-3-5-|

---------------------------|
---------------------------|
-----5--5--5--5------------|
-----5--5--5--5----------0-|
-3-0-3--3--2--2----3-5//-0-|
-----------------0-------0-| x4

verse

---------------/-----------------------------|
---------------/-----------------------------|
---------------/------------x-x---x-x--------|
x-x-x-x-x-3b3.5/------------x-x-3-x-x-3b3.5--|
x-x-x-x-x------/-0--5-3-5-5-x-x---x-x--------|
x-x-x-x-x------/-0---------------------------| x8

only in 4th and 6th time it's

-------------------------------|
-------------------------------|
------------x-x---x----5-------|
------------x-x-3-x-5s7--7s5-3-|
-0--5-3-5-5-x-x---x------------|
-0-----------------------------|

chorus same as theme x4

verse x8

chorus x2


post chorus       bridge

---------------/-------------------------------------|
---------------/-------------------------------------|
-5--5--5~------/-------------------------------------|
-5--5--5~----0~/-------------------------------------|
-3--3--2~-x4-0~/-3s5-3s5---5----3s5-3s5-3s5-5----(3)-|
-------------0~/------------0-0---------------0-0-3--| x16

( ) is the 2nd,4th,6th and 8th time

theme x8

end on ----------|
       ----------|
       -5-5------|
       -5-5-0~---|
       -3-2-0~---|
       -----0~---|


solo im bored to figure it out:P

chears
Tap to rate this tab
# A B C D E F G H I J K L M N O P Q R S T U V W X Y Z